999
dxflib 2.2.0.0
  0
SECTION
  2
HEADER
  9
$ACADVER
  1
AC1015
  9
$HANDSEED
  5
FFFF
  9
$DIMASZ
 40
2.5
  9
$PLIMMIN
 10
0.0
 20
0.0
  9
$DIMEXE
 40
1.25
  9
$DIMGAP
 40
0.625
  9
$PLIMMAX
 10
210.0
 20
297.0
  9
$INSUNITS
 70
4
  9
$DIMSTYLE
  2
Standard
  9
$CLAYER
  8
zahn
  9
$DIMEXO
 40
0.625
  9
$DIMTXT
 40
2.5
  9
$CLAYER
  8
zahn
  0
ENDSEC
  0
SECTION
  2
TABLES
  0
TABLE
  2
VPORT
  5
8
100
AcDbSymbolTable
 70
1
  0
VPORT
  5
30
100
AcDbSymbolTableRecord
100
AcDbViewportTableRecord
  2
*Active
 70
0
 10
0.0
 20
0.0
 11
1.0
 21
1.0
 12
286.3055555555554861
 22
148.5
 13
0.0
 23
0.0
 14
10.0
 24
10.0
 15
10.0
 25
10.0
 16
0.0
 26
0.0
 36
1.0
 17
0.0
 27
0.0
 37
0.0
 40
297.0
 41
1.92798353909465
 42
50.0
 43
0.0
 44
0.0
 50
0.0
 51
0.0
 71
0
 72
100
 73
1
 74
3
 75
1
 76
1
 77
0
 78
0
281
0
 65
1
110
0.0
120
0.0
130
0.0
111
1.0
121
0.0
131
0.0
112
0.0
122
1.0
132
0.0
 79
0
146
0.0
  0
ENDTAB
  0
TABLE
  2
LTYPE
  5
5
100
AcDbSymbolTable
 70
21
  0
LTYPE
  5
14
100
AcDbSymbolTableRecord
100
AcDbLinetypeTableRecord
  2
ByBlock
 70
0
  3

 72
65
 73
0
 40
0.0
  0
LTYPE
  5
15
100
AcDbSymbolTableRecord
100
AcDbLinetypeTableRecord
  2
ByLayer
 70
0
  3

 72
65
 73
0
 40
0.0
  0
LTYPE
  5
16
100
AcDbSymbolTableRecord
100
AcDbLinetypeTableRecord
  2
CONTINUOUS
 70
0
  3
Solid line
 72
65
 73
0
 40
0.0
  0
LTYPE
  5
31
100
AcDbSymbolTableRecord
100
AcDbLinetypeTableRecord
  2
DOT
 70
0
  3
Dot . . . . . . . . . . . . . . . . . . . . . .
 72
65
 73
2
 40
6.3499999999999996
 49
0.0
 74
0
 49
-6.3499999999999996
 74
0
  0
LTYPE
  5
32
100
AcDbSymbolTableRecord
100
AcDbLinetypeTableRecord
  2
DOT2
 70
0
  3
Dot (.5x) .....................................
 72
65
 73
2
 40
3.1749999999999998
 49
0.0
 74
0
 49
-3.1749999999999998
 74
0
  0
LTYPE
  5
33
100
AcDbSymbolTableRecord
100
AcDbLinetypeTableRecord
  2
DOTX2
 70
0
  3
Dot (2x) .  .  .  .  .  .  .  .  .  .  .  .  .
 72
65
 73
2
 40
12.6999999999999993
 49
0.0
 74
0
 49
-12.6999999999999993
 74
0
  0
LTYPE
  5
34
100
AcDbSymbolTableRecord
100
AcDbLinetypeTableRecord
  2
DASHED
 70
0
  3
Dashed __ __ __ __ __ __ __ __ __ __ __ __ __ _
 72
65
 73
2
 40
19.0500000000000007
 49
12.6999999999999993
 74
0
 49
-6.3499999999999996
 74
0
  0
LTYPE
  5
35
100
AcDbSymbolTableRecord
100
AcDbLinetypeTableRecord
  2
DASHED2
 70
0
  3
Dashed (.5x) _ _ _ _ _ _ _ _ _ _ _ _ _ _ _ _ _
 72
65
 73
2
 40
9.5250000000000004
 49
6.3499999999999996
 74
0
 49
-3.1749999999999998
 74
0
  0
LTYPE
  5
36
100
AcDbSymbolTableRecord
100
AcDbLinetypeTableRecord
  2
DASHEDX2
 70
0
  3
Dashed (2x) ____  ____  ____  ____  ____  ___
 72
65
 73
2
 40
38.1000000000000014
 49
25.3999999999999986
 74
0
 49
-12.6999999999999993
 74
0
  0
LTYPE
  5
37
100
AcDbSymbolTableRecord
100
AcDbLinetypeTableRecord
  2
DASHDOT
 70
0
  3
Dash dot __ . __ . __ . __ . __ . __ . __ . __
 72
65
 73
4
 40
25.3999999999999986
 49
12.6999999999999993
 74
0
 49
-6.3499999999999996
 74
0
 49
0.0
 74
0
 49
-6.3499999999999996
 74
0
  0
LTYPE
  5
38
100
AcDbSymbolTableRecord
100
AcDbLinetypeTableRecord
  2
DASHDOT2
 70
0
  3
Dash dot (.5x) _._._._._._._._._._._._._._._.
 72
65
 73
4
 40
12.6999999999999993
 49
6.3499999999999996
 74
0
 49
-3.1749999999999998
 74
0
 49
0.0
 74
0
 49
-3.1749999999999998
 74
0
  0
LTYPE
  5
39
100
AcDbSymbolTableRecord
100
AcDbLinetypeTableRecord
  2
DASHDOTX2
 70
0
  3
Dash dot (2x) ____  .  ____  .  ____  .  ___
 72
65
 73
4
 40
50.7999999999999972
 49
25.3999999999999986
 74
0
 49
-12.6999999999999993
 74
0
 49
0.0
 74
0
 49
-12.6999999999999993
 74
0
  0
LTYPE
  5
3A
100
AcDbSymbolTableRecord
100
AcDbLinetypeTableRecord
  2
DIVIDE
 70
0
  3
Divide ____ . . ____ . . ____ . . ____ . . ____
 72
65
 73
6
 40
31.75
 49
12.6999999999999993
 74
0
 49
-6.3499999999999996
 74
0
 49
0.0
 74
0
 49
-6.3499999999999996
 74
0
 49
0.0
 74
0
 49
-6.3499999999999996
 74
0
  0
LTYPE
  5
3B
100
AcDbSymbolTableRecord
100
AcDbLinetypeTableRecord
  2
DIVIDE2
 70
0
  3
Divide (.5x) __..__..__..__..__..__..__..__.._
 72
65
 73
6
 40
15.875
 49
6.3499999999999996
 74
0
 49
-3.1749999999999998
 74
0
 49
0.0
 74
0
 49
-3.1749999999999998
 74
0
 49
0.0
 74
0
 49
-3.1749999999999998
 74
0
  0
LTYPE
  5
3C
100
AcDbSymbolTableRecord
100
AcDbLinetypeTableRecord
  2
DIVIDEX2
 70
0
  3
Divide (2x) ________  .  .  ________  .  .  _
 72
65
 73
6
 40
63.5
 49
25.3999999999999986
 74
0
 49
-12.6999999999999993
 74
0
 49
0.0
 74
0
 49
-12.6999999999999993
 74
0
 49
0.0
 74
0
 49
-12.6999999999999993
 74
0
  0
LTYPE
  5
3D
100
AcDbSymbolTableRecord
100
AcDbLinetypeTableRecord
  2
CENTER
 70
0
  3
Center ____ _ ____ _ ____ _ ____ _ ____ _ ____
 72
65
 73
4
 40
50.7999999999999972
 49
31.75
 74
0
 49
-6.3499999999999996
 74
0
 49
6.3499999999999996
 74
0
 49
-6.3499999999999996
 74
0
  0
LTYPE
  5
3E
100
AcDbSymbolTableRecord
100
AcDbLinetypeTableRecord
  2
CENTER2
 70
0
  3
Center (.5x) ___ _ ___ _ ___ _ ___ _ ___ _ ___
 72
65
 73
4
 40
28.5749999999999993
 49
19.0500000000000007
 74
0
 49
-3.1749999999999998
 74
0
 49
3.1749999999999998
 74
0
 49
-3.1749999999999998
 74
0
  0
LTYPE
  5
3F
100
AcDbSymbolTableRecord
100
AcDbLinetypeTableRecord
  2
CENTERX2
 70
0
  3
Center (2x) ________  __  ________  __  _____
 72
65
 73
4
 40
101.5999999999999943
 49
63.5
 74
0
 49
-12.6999999999999993
 74
0
 49
12.6999999999999993
 74
0
 49
-12.6999999999999993
 74
0
  0
LTYPE
  5
40
100
AcDbSymbolTableRecord
100
AcDbLinetypeTableRecord
  2
BORDER
 70
0
  3
Border __ __ . __ __ . __ __ . __ __ . __ __ .
 72
65
 73
6
 40
44.4500000000000028
 49
12.6999999999999993
 74
0
 49
-6.3499999999999996
 74
0
 49
12.6999999999999993
 74
0
 49
-6.3499999999999996
 74
0
 49
0.0
 74
0
 49
-6.3499999999999996
 74
0
  0
LTYPE
  5
41
100
AcDbSymbolTableRecord
100
AcDbLinetypeTableRecord
  2
BORDER2
 70
0
  3
Border (.5x) __.__.__.__.__.__.__.__.__.__.__.
 72
65
 73
6
 40
22.2250000000000014
 49
6.3499999999999996
 74
0
 49
-3.1749999999999998
 74
0
 49
6.3499999999999996
 74
0
 49
-3.1749999999999998
 74
0
 49
0.0
 74
0
 49
-3.1749999999999998
 74
0
  0
LTYPE
  5
42
100
AcDbSymbolTableRecord
100
AcDbLinetypeTableRecord
  2
BORDERX2
 70
0
  3
Border (2x) ____  ____  .  ____  ____  .  ___
 72
65
 73
6
 40
88.9000000000000057
 49
25.3999999999999986
 74
0
 49
-12.6999999999999993
 74
0
 49
25.3999999999999986
 74
0
 49
-12.6999999999999993
 74
0
 49
0.0
 74
0
 49
-12.6999999999999993
 74
0
  0
ENDTAB
  0
TABLE
  2
LAYER
  5
2
100
AcDbSymbolTable
 70
7
  0
LAYER
  5
10
100
AcDbSymbolTableRecord
100
AcDbLayerTableRecord
  2
0
 70
0
 62
7
420
0
  6
CONTINUOUS
370
0
390
F
  0
LAYER
  5
43
100
AcDbSymbolTableRecord
100
AcDbLayerTableRecord
  2
halter
 70
0
 62
3
420
65280
  6
CONTINUOUS
370
0
390
F
  0
LAYER
  5
44
100
AcDbSymbolTableRecord
100
AcDbLayerTableRecord
  2
platte
 70
0
 62
5
420
255
  6
CONTINUOUS
370
0
390
F
  0
LAYER
  5
45
100
AcDbSymbolTableRecord
100
AcDbLayerTableRecord
  2
arm
 70
0
 62
7
420
0
  6
CONTINUOUS
370
0
390
F
  0
LAYER
  5
46
100
AcDbSymbolTableRecord
100
AcDbLayerTableRecord
  2
mass
 70
0
 62
7
420
0
  6
CONTINUOUS
370
0
390
F
  0
LAYER
  5
47
100
AcDbSymbolTableRecord
100
AcDbLayerTableRecord
  2
HALTERINNER
 70
1
 62
-7
420
0
  6
CONTINUOUS
370
0
390
F
  0
LAYER
  5
48
100
AcDbSymbolTableRecord
100
AcDbLayerTableRecord
  2
zahn
 70
0
 62
7
420
0
  6
CONTINUOUS
370
0
390
F
  0
ENDTAB
  0
TABLE
  2
STYLE
  5
3
100
AcDbSymbolTable
 70
1
  0
STYLE
  5
11
100
AcDbSymbolTableRecord
100
AcDbTextStyleTableRecord
  2
Standard
 70
0
 40
0.0
 41
0.75
 50
0.0
 71
0
 42
2.5
  3
txt
  4

  0
ENDTAB
  0
TABLE
  2
VIEW
  5
6
100
AcDbSymbolTable
 70
0
  0
ENDTAB
  0
TABLE
  2
UCS
  5
7
100
AcDbSymbolTable
 70
0
  0
ENDTAB
  0
TABLE
  2
APPID
  5
9
100
AcDbSymbolTable
 70
1
  0
APPID
  5
12
100
AcDbSymbolTableRecord
100
AcDbRegAppTableRecord
  2
ACAD
 70
0
  0
ENDTAB
  0
TABLE
  2
DIMSTYLE
  5
A
100
AcDbSymbolTable
 70
1
100
AcDbDimStyleTable
 71
0
  0
DIMSTYLE
105
27
100
AcDbSymbolTableRecord
100
AcDbDimStyleTableRecord
  2
Standard
 41
2.5
 42
0.625
 43
3.75
 44
1.25
 70
0
 73
0
 74
0
 77
1
 78
8
140
2.5
141
2.5
143
0.03937007874016
147
0.625
171
3
172
1
271
2
272
2
274
3
278
44
283
0
284
8
340
11
  0
ENDTAB
  0
TABLE
  2
BLOCK_RECORD
  5
1
100
AcDbSymbolTable
 70
1
  0
BLOCK_RECORD
  5
1F
100
AcDbSymbolTableRecord
100
AcDbBlockTableRecord
  2
*Model_Space
340
22
  0
BLOCK_RECORD
  5
1B
100
AcDbSymbolTableRecord
100
AcDbBlockTableRecord
  2
*Paper_Space
340
1E
  0
BLOCK_RECORD
  5
23
100
AcDbSymbolTableRecord
100
AcDbBlockTableRecord
  2
*Paper_Space0
340
26
  0
BLOCK_RECORD
  5
49
100
AcDbSymbolTableRecord
100
AcDbBlockTableRecord
  2
iris
340
0
  0
BLOCK_RECORD
  5
4A
100
AcDbSymbolTableRecord
100
AcDbBlockTableRecord
  2
slit
340
0
  0
BLOCK_RECORD
  5
4B
100
AcDbSymbolTableRecord
100
AcDbBlockTableRecord
  2
slitcenter
340
0
  0
BLOCK_RECORD
  5
4C
100
AcDbSymbolTableRecord
100
AcDbBlockTableRecord
  2
laserklappe
340
0
  0
BLOCK_RECORD
  5
4D
100
AcDbSymbolTableRecord
100
AcDbBlockTableRecord
  2
GANZE
340
0
  0
BLOCK_RECORD
  5
4E
100
AcDbSymbolTableRecord
100
AcDbBlockTableRecord
  2
HALTER
340
0
  0
ENDTAB
  0
ENDSEC
  0
SECTION
  2
BLOCKS
  0
BLOCK
  5
20
100
AcDbEntity
  8
0
100
AcDbBlockBegin
  2
*Model_Space
 70
0
 10
0.0
 20
0.0
 30
0.0
  3
*Model_Space
  1

  0
ENDBLK
  5
21
100
AcDbEntity
  8
0
100
AcDbBlockEnd
  0
BLOCK
  5
1C
100
AcDbEntity
 67
1
  8
0
100
AcDbBlockBegin
  2
*Paper_Space
 70
0
 10
0.0
 20
0.0
 30
0.0
  3
*Paper_Space
  1

  0
ENDBLK
  5
1D
100
AcDbEntity
 67
1
  8
0
100
AcDbBlockEnd
  0
BLOCK
  5
24
100
AcDbEntity
  8
0
100
AcDbBlockBegin
  2
*Paper_Space0
 70
0
 10
0.0
 20
0.0
 30
0.0
  3
*Paper_Space0
  1

  0
ENDBLK
  5
25
100
AcDbEntity
  8
0
100
AcDbBlockEnd
  0
BLOCK
  5
4F
100
AcDbEntity
  8
0
100
AcDbBlockBegin
  2
iris
 70
0
 10
0.0
 20
0.0
 30
0.0
  3
iris
  1

  0
LINE
  5
50
100
AcDbEntity
100
AcDbLine
  8
0
 62
256
370
-1
  6
ByLayer
 10
93.3594729049673617
 20
-14.2915709388485563
 30
0.0
 11
80.9016994374947558
 21
-8.5031112510714966
 31
0.0
  0
CIRCLE
  5
51
100
AcDbEntity
100
AcDbCircle
  8
0
 62
256
370
-1
  6
ByLayer
 10
100.0000000000000284
 20
-0.0000000000000095
 30
0.0
 40
2.1000000000000001
  0
CIRCLE
  5
52
100
AcDbEntity
100
AcDbCircle
  8
0
 62
256
370
-1
  6
ByLayer
 10
68.0456000000016843
 20
86.8352000000021462
 30
0.0
 40
2.1000000000000001
  0
ARC
  5
53
100
AcDbEntity
  8
0
 62
256
370
-1
  6
ByLayer
100
AcDbCircle
 10
100.0000000000000284
 20
-0.0000000000000095
 30
0.0
 40
100.0
100
AcDbArc
 50
109.2697740465778509
 51
180.0
  0
ARC
  5
54
100
AcDbEntity
  8
0
 62
256
370
-1
  6
ByLayer
100
AcDbCircle
 10
100.0000000000000284
 20
-0.0000000000000095
 30
0.0
 40
15.7589847388720958
100
AcDbArc
 50
245.0782321677619393
 51
0.9911573741425176
  0
ARC
  5
55
100
AcDbEntity
  8
0
 62
256
370
-1
  6
ByLayer
100
AcDbCircle
 10
30.9016994374947345
 20
-95.1056516295153642
 30
0.0
 40
100.0
100
AcDbArc
 50
59.9999999999999432
 51
108.0
  0
ARC
  5
56
100
AcDbEntity
  8
0
 62
256
370
-1
  6
ByLayer
100
AcDbCircle
 10
0.0000000000000249
 20
-0.0000000000000166
 30
0.0
 40
115.756947807069821
100
AcDbArc
 50
359.8650718627525862
 51
54.6348870232889183
  0
ENDBLK
  5
57
100
AcDbEntity
  8
0
100
AcDbBlockEnd
  0
BLOCK
  5
58
100
AcDbEntity
  8
0
100
AcDbBlockBegin
  2
slit
 70
0
 10
0.0
 20
0.0
 30
0.0
  3
slit
  1

  0
ARC
  5
59
100
AcDbEntity
  8
halter
 62
256
370
-1
  6
ByLayer
100
AcDbCircle
 10
244.3294643796588161
 20
0.0000000000000094
 30
0.0
 40
244.3294643796588161
100
AcDbArc
 50
180.0
 51
216.0000000000000284
  0
ARC
  5
5A
100
AcDbEntity
  8
halter
 62
256
370
-1
  6
ByLayer
100
AcDbCircle
 10
244.3294643796588446
 20
-0.0000000000001504
 30
0.0
 40
248.7294643796587081
100
AcDbArc
 50
180.0
 51
216.0
  0
LINE
  5
5B
100
AcDbEntity
100
AcDbLine
  8
halter
 62
256
370
-1
  6
ByLayer
 10
43.1031006947368951
 20
-146.1995109729695912
 30
0.0
 11
46.6627754699865704
 21
-143.6132558628827667
 31
0.0
  0
LINE
  5
5C
100
AcDbEntity
100
AcDbLine
  8
halter
 62
256
370
-1
  6
ByLayer
 10
-4.3999999999998067
 20
-0.0000000000000029
 30
0.0
 11
0.0
 21
0.0
 31
0.0
  0
ENDBLK
  5
5D
100
AcDbEntity
  8
0
100
AcDbBlockEnd
  0
BLOCK
  5
5E
100
AcDbEntity
  8
0
100
AcDbBlockBegin
  2
slitcenter
 70
0
 10
0.0
 20
0.0
 30
0.0
  3
slitcenter
  1

  0
ARC
  5
5F
100
AcDbEntity
  8
halter
 62
256
370
-1
  6
ByLayer
100
AcDbCircle
 10
0.0000000000000497
 20
-0.000000000000084
 30
0.0
 40
244.3294643796588161
100
AcDbArc
 50
180.0
 51
216.0000000000000284
  0
ARC
  5
60
100
AcDbEntity
  8
halter
 62
256
370
-1
  6
ByLayer
100
AcDbCircle
 10
0.0000000000000782
 20
-0.0000000000001439
 30
0.0
 40
248.7294643796587081
100
AcDbArc
 50
180.0
 51
216.0
  0
LINE
  5
61
100
AcDbEntity
100
AcDbLine
  8
halter
 62
256
370
-1
  6
ByLayer
 10
-201.226363684921921
 20
-146.1995109729696765
 30
0.0
 11
-197.6666889096722457
 21
-143.6132558628828519
 31
0.0
  0
LINE
  5
62
100
AcDbEntity
100
AcDbLine
  8
halter
 62
256
370
-1
  6
ByLayer
 10
-248.729464379658566
 20
-0.0000000000000835
 30
0.0
 11
-244.3294643796587593
 21
-0.000000000000084
 31
0.0
  0
ENDBLK
  5
63
100
AcDbEntity
  8
0
100
AcDbBlockEnd
  0
BLOCK
  5
64
100
AcDbEntity
  8
0
100
AcDbBlockBegin
  2
laserklappe
 70
0
 10
0.0
 20
0.0
 30
0.0
  3
laserklappe
  1

  0
LINE
  5
65
100
AcDbEntity
100
AcDbLine
  8
0
 62
256
370
-1
  6
ByLayer
 10
15.2575720440359017
 20
-93.2064733605693618
 30
0.0
 11
16.913060635885909
 21
-79.5696943110232127
 31
0.0
  0
CIRCLE
  5
66
100
AcDbEntity
100
AcDbCircle
  8
0
 62
256
370
-1
  6
ByLayer
 10
30.9016994374947345
 20
-95.1056516295153642
 30
0.0
 40
2.1000000000000001
  0
CIRCLE
  5
67
100
AcDbEntity
100
AcDbCircle
  8
0
 62
256
370
-1
  6
ByLayer
 10
103.6124295962354438
 20
-37.8816587752669278
 30
0.0
 40
2.1000000000000001
  0
ARC
  5
68
100
AcDbEntity
  8
0
 62
256
370
-1
  6
ByLayer
100
AcDbCircle
 10
30.9016994374947345
 20
-95.1056516295153642
 30
0.0
 40
100.0
100
AcDbArc
 50
37.2697740465778722
 51
108.0
  0
ARC
  5
69
100
AcDbEntity
  8
0
 62
256
370
-1
  6
ByLayer
100
AcDbCircle
 10
30.9016994374947345
 20
-95.1056516295153642
 30
0.0
 40
15.7589847388720958
100
AcDbArc
 50
173.0782321677619393
 51
288.9911573741425173
  0
ARC
  5
6A
100
AcDbEntity
  8
0
 62
256
370
-1
  6
ByLayer
100
AcDbCircle
 10
0.0000000000000323
 20
0.0000000000000091
 30
0.0
 40
115.756947807069821
100
AcDbArc
 50
287.8650718627525293
 51
342.6348870232889112
  0
ENDBLK
  5
6B
100
AcDbEntity
  8
0
100
AcDbBlockEnd
  0
BLOCK
  5
6C
100
AcDbEntity
  8
0
100
AcDbBlockBegin
  2
GANZE
 70
0
 10
0.0
 20
0.0
 30
0.0
  3
GANZE
  1

  0
LINE
  5
6D
100
AcDbEntity
100
AcDbLine
  8
0
 62
256
370
-1
  6
ByLayer
 10
42.4417553830088536
 20
84.3737967677306528
 30
0.0
 11
33.0869393641140732
 21
74.3144825477394448
 31
0.0
  0
CIRCLE
  5
6E
100
AcDbEntity
100
AcDbCircle
  8
0
 62
256
370
-1
  6
ByLayer
 10
30.9016994374948126
 20
95.1056516295153358
 30
0.0
 40
2.1000000000000001
  0
CIRCLE
  5
6F
100
AcDbEntity
100
AcDbCircle
  8
0
 62
256
370
-1
  6
ByLayer
 10
-61.5579360113545135
 20
91.5487637951631683
 30
0.0
 40
2.1000000000000001
  0
ARC
  5
70
100
AcDbEntity
  8
0
 62
256
370
-1
  6
ByLayer
100
AcDbCircle
 10
30.9016994374948126
 20
95.1056516295153358
 30
0.0
 40
100.0
100
AcDbArc
 50
181.2697740465778793
 51
252.0
  0
ARC
  5
71
100
AcDbEntity
  8
0
 62
256
370
-1
  6
ByLayer
100
AcDbCircle
 10
30.9016994374948126
 20
95.1056516295153358
 30
0.0
 40
15.7589847388720958
100
AcDbArc
 50
317.0782321677619393
 51
72.991157374142503
  0
ARC
  5
72
100
AcDbEntity
  8
0
 62
256
370
-1
  6
ByLayer
100
AcDbCircle
 10
0.0
 20
0.0000000000000104
 30
0.0
 40
115.756947807069821
100
AcDbArc
 50
71.8650718627525151
 51
126.6348870232889112
  0
ARC
  5
73
100
AcDbEntity
  8
0
 62
256
370
-1
  6
ByLayer
100
AcDbCircle
 10
100.0
 20
-0.0000000000000155
 30
0.0
 40
100.0
100
AcDbArc
 50
132.0000000000006821
 51
180.0
  0
ENDBLK
  5
74
100
AcDbEntity
  8
0
100
AcDbBlockEnd
  0
BLOCK
  5
75
100
AcDbEntity
  8
0
100
AcDbBlockBegin
  2
HALTER
 70
0
 10
0.0
 20
0.0
 30
0.0
  3
HALTER
  1

  0
CIRCLE
  5
76
100
AcDbEntity
100
AcDbCircle
  8
arm
 62
256
370
-1
  6
ByLayer
 10
-59.7659844259870852
 20
100.7297645809273945
 30
0.0
 40
2.1000000000000001
  0
CIRCLE
  5
77
100
AcDbEntity
100
AcDbCircle
  8
arm
 62
256
370
-1
  6
ByLayer
 10
80.1082478783480383
 20
85.446632401736764
 30
0.0
 40
2.1000000000000001
  0
ARC
  5
78
100
AcDbEntity
  8
arm
 62
256
370
-1
  6
ByLayer
100
AcDbCircle
 10
0.0
 20
0.0
 30
0.0
 40
124.1258228015341842
100
AcDbArc
 50
46.8468852111999468
 51
120.6819239260026961
  0
ARC
  5
79
100
AcDbEntity
  8
arm
 62
256
370
-1
  6
ByLayer
100
AcDbCircle
 10
0.0
 20
0.0
 30
0.0
 40
110.1258228015342127
100
AcDbArc
 50
46.8468860086081236
 51
120.6819240642162896
  0
ARC
  5
7A
100
AcDbEntity
  8
arm
 62
256
370
-1
  6
ByLayer
100
AcDbCircle
 10
-59.7659844259870852
 20
100.7297645809273945
 30
0.0
 40
7.0
100
AcDbArc
 50
120.6819260839427272
 51
300.6819195673114109
  0
ARC
  5
7B
100
AcDbEntity
  8
arm
 62
256
370
-1
  6
ByLayer
100
AcDbCircle
 10
80.1082478783480383
 20
85.446632401736764
 30
0.0
 40
7.0
100
AcDbArc
 50
226.846880852508832
 51
46.8468873691404184
  0
ENDBLK
  5
7C
100
AcDbEntity
  8
0
100
AcDbBlockEnd
  0
ENDSEC
  0
SECTION
  2
ENTITIES
  0
CIRCLE
  5
7D
100
AcDbEntity
100
AcDbCircle
  8
0
 62
256
370
-1
  6
ByLayer
 10
23.1762745781211308
 20
71.3292387221365658
 30
0.0
 40
1.5750000000000002
  0
CIRCLE
  5
7E
100
AcDbEntity
100
AcDbCircle
  8
0
 62
256
370
-1
  6
ByLayer
 10
23.1762745781210988
 20
71.3292387221365942
 30
0.0
 40
1.5750000000000002
  0
CIRCLE
  5
7F
100
AcDbEntity
100
AcDbCircle
  8
platte
 62
256
370
-1
  6
ByLayer
 10
75.0
 20
0.0000000000000343
 30
0.0
 40
1.5750000000000002
  0
INSERT
  5
80
100
AcDbEntity
100
AcDbBlockReference
  8
0
 62
256
370
-1
  6
ByLayer
  2
laserklappe
 10
-0.0000000000000062
 20
-0.0000000000000329
 30
0.0
 41
0.75
 42
0.75
 43
1.0
  0
INSERT
  5
81
100
AcDbEntity
100
AcDbBlockReference
  8
0
 62
256
370
-1
  6
ByLayer
  2
laserklappe
 10
-0.0000000000000117
 20
-0.0000000000000405
 30
0.0
 41
0.75
 42
0.75
 43
1.0
 50
288.0
  0
INSERT
  5
82
100
AcDbEntity
100
AcDbBlockReference
  8
0
 62
256
370
-1
  6
ByLayer
  2
laserklappe
 10
-0.0000000000000206
 20
-0.0000000000000375
 30
0.0
 41
0.75
 42
0.75
 43
1.0
 50
216.0
  0
INSERT
  5
83
100
AcDbEntity
100
AcDbBlockReference
  8
0
 62
256
370
-1
  6
ByLayer
  2
laserklappe
 10
-0.0000000000000117
 20
-0.0000000000000252
 30
0.0
 41
0.75
 42
0.75
 43
1.0
 50
72.0
  0
CIRCLE
  5
84
100
AcDbEntity
100
AcDbCircle
  8
platte
 62
256
370
-1
  6
ByLayer
 10
23.176274578121081
 20
-71.3292387221364947
 30
0.0
 40
1.5750000000000002
  0
CIRCLE
  5
85
100
AcDbEntity
100
AcDbCircle
  8
platte
 62
256
370
-1
  6
ByLayer
 10
-60.6762745781209958
 20
-44.0838939219354842
 30
0.0
 40
1.5750000000000002
  0
CIRCLE
  5
86
100
AcDbEntity
100
AcDbCircle
  8
platte
 62
256
370
-1
  6
ByLayer
 10
-60.6762745781210171
 20
44.0838939219354558
 30
0.0
 40
1.5750000000000002
  0
CIRCLE
  5
87
100
AcDbEntity
100
AcDbCircle
  8
platte
 62
256
370
-1
  6
ByLayer
 10
23.1762745781210668
 20
71.3292387221364947
 30
0.0
 40
1.5750000000000002
  0
INSERT
  5
88
100
AcDbEntity
100
AcDbBlockReference
  8
0
 62
256
370
-1
  6
ByLayer
  2
GANZE
 10
0.0000000000000018
 20
-0.0000000000000399
 30
0.0
 41
0.75
 42
0.75
 43
1.0
  0
CIRCLE
  5
89
100
AcDbEntity
100
AcDbCircle
  8
platte
 62
256
370
-1
  6
ByLayer
 10
-144.1064966509129022
 20
-31.1038301178556651
 30
0.0
 40
1.5750000000000002
  0
CIRCLE
  5
8A
100
AcDbEntity
100
AcDbCircle
  8
platte
 62
256
370
-1
  6
ByLayer
 10
-14.9498561496445106
 20
-146.6650347768851645
 30
0.0
 40
1.5750000000000002
  0
CIRCLE
  5
8B
100
AcDbEntity
100
AcDbCircle
  8
platte
 62
256
370
-1
  6
ByLayer
 10
134.8669774235110026
 20
-59.5401463354447884
 30
0.0
 40
1.5750000000000002
  0
CIRCLE
  5
8C
100
AcDbEntity
100
AcDbCircle
  8
platte
 62
256
370
-1
  6
ByLayer
 10
98.3022321573390343
 20
109.8672006464377944
 30
0.0
 40
1.5750000000000002
  0
CIRCLE
  5
8D
100
AcDbEntity
100
AcDbCircle
  8
platte
 62
256
370
-1
  6
ByLayer
 10
-74.1128567802924181
 20
127.4418105837478521
 30
0.0
 40
1.5750000000000002
  0
CIRCLE
  5
8E
100
AcDbEntity
100
AcDbCircle
  8
HALTERINNER
 62
256
370
-1
  6
ByLayer
 10
-0.0000000000000116
 20
0.0000000000000027
 30
0.0
 40
61.0104964613700815
  0
CIRCLE
  5
8F
100
AcDbEntity
100
AcDbCircle
  8
HALTERINNER
 62
256
370
-1
  6
ByLayer
 10
75.0
 20
0.0000000000000343
 30
0.0
 40
1.5750000000000002
  0
CIRCLE
  5
90
100
AcDbEntity
100
AcDbCircle
  8
HALTERINNER
 62
256
370
-1
  6
ByLayer
 10
23.1762745781207578
 20
71.329238722137319
 30
0.0
 40
1.5750000000000002
  0
CIRCLE
  5
91
100
AcDbEntity
100
AcDbCircle
  8
HALTERINNER
 62
256
370
-1
  6
ByLayer
 10
-60.6762745781218911
 20
44.0838939219361379
 30
0.0
 40
1.5750000000000002
  0
CIRCLE
  5
92
100
AcDbEntity
100
AcDbCircle
  8
HALTERINNER
 62
256
370
-1
  6
ByLayer
 10
-60.6762745781219337
 20
-44.0838939219353989
 30
0.0
 40
1.5750000000000002
  0
CIRCLE
  5
93
100
AcDbEntity
100
AcDbCircle
  8
HALTERINNER
 62
256
370
-1
  6
ByLayer
 10
23.1762745781207045
 20
-71.3292387221366369
 30
0.0
 40
1.5750000000000002
  0
LINE
  5
94
100
AcDbEntity
100
AcDbLine
  8
HALTERINNER
 62
256
370
-1
  6
ByLayer
 10
-38.4543968601131709
 20
71.1497920619509756
 30
0.0
 11
-23.9656484625300195
 21
87.0740931263164697
 31
0.0
  0
ARC
  5
95
100
AcDbEntity
  8
HALTERINNER
 62
256
370
-1
  6
ByLayer
100
AcDbCircle
 10
55.6240447820571973
 20
71.1492490619805977
 30
0.0
 40
12.5914707190129107
100
AcDbArc
 50
145.9793100877194547
 51
270.7297455219178346
  0
LINE
  5
96
100
AcDbEntity
100
AcDbLine
  8
HALTERINNER
 62
256
370
-1
  6
ByLayer
 10
55.7844112353501487
 20
58.5587996073972761
 30
0.0
 11
75.4065910121367722
 21
49.7000606833468481
 31
0.0
  0
ARC
  5
97
100
AcDbEntity
  8
HALTERINNER
 62
256
370
-1
  6
ByLayer
100
AcDbCircle
 10
84.8557320834323434
 20
-30.9152831555009868
 30
0.0
 40
12.5914707190129107
100
AcDbArc
 50
73.9793100877194405
 51
198.7297455219178062
  0
LINE
  5
98
100
AcDbEntity
100
AcDbLine
  8
HALTERINNER
 62
256
370
-1
  6
ByLayer
 10
72.9310590459612627
 20
-34.9584635641854078
 30
0.0
 11
70.5694846837930925
 21
-56.3577663810757485
 31
0.0
  0
ARC
  5
99
100
AcDbEntity
  8
HALTERINNER
 62
256
370
-1
  6
ByLayer
100
AcDbCircle
 10
-3.1803182142408599
 20
-90.2559448239072708
 30
0.0
 40
12.5914707190129107
100
AcDbArc
 50
1.9793100877194421
 51
126.7297455219178204
  0
LINE
  5
9A
100
AcDbEntity
100
AcDbLine
  8
HALTERINNER
 62
256
370
-1
  6
ByLayer
 10
-10.7105379094203705
 20
-80.1643182845386235
 30
0.0
 11
-31.7922509089873024
 21
-84.5310758368778039
 31
0.0
  0
ARC
  5
9B
100
AcDbEntity
  8
HALTERINNER
 62
256
370
-1
  6
ByLayer
100
AcDbCircle
 10
-86.8212768348733732
 20
-24.8659584324088314
 30
0.0
 40
12.5914707190129107
100
AcDbArc
 50
289.9793100877194547
 51
54.7297455219178204
  0
LINE
  5
9C
100
AcDbEntity
100
AcDbLine
  8
HALTERINNER
 62
256
370
-1
  6
ByLayer
 10
-79.5505355117771273
 20
-14.585809820624096
 30
0.0
 11
-90.2181763244118144
 21
4.1146884082903492
 31
0.0
  0
ARC
  5
9D
100
AcDbEntity
  8
HALTERINNER
 62
256
370
-1
  6
ByLayer
100
AcDbCircle
 10
0.0000000000000018
 20
0.0000000000000006
 30
0.0
 40
90.3119593409422095
100
AcDbArc
 50
347.9766972342266058
 51
33.3886523940777948
  0
ARC
  5
9E
100
AcDbEntity
  8
HALTERINNER
 62
256
370
-1
  6
ByLayer
100
AcDbCircle
 10
0.0000000000000018
 20
0.0000000000000006
 30
0.0
 40
90.3119593409422095
100
AcDbArc
 50
275.9766972342267195
 51
321.3886523940778943
  0
ARC
  5
9F
100
AcDbEntity
  8
HALTERINNER
 62
256
370
-1
  6
ByLayer
100
AcDbCircle
 10
0.0000000000000018
 20
0.0000000000000006
 30
0.0
 40
90.3119593409422095
100
AcDbArc
 50
131.9766972342264921
 51
177.3886523940775248
  0
ARC
  5
A0
100
AcDbEntity
  8
HALTERINNER
 62
256
370
-1
  6
ByLayer
100
AcDbCircle
 10
0.0000000000000018
 20
0.0000000000000006
 30
0.0
 40
90.3119593409422095
100
AcDbArc
 50
203.9766972342266058
 51
249.3886523940777238
  0
ARC
  5
A1
100
AcDbEntity
  8
HALTERINNER
 62
256
370
-1
  6
ByLayer
100
AcDbCircle
 10
-50.4781818163745584
 20
74.887937349836605
 30
0.0
 40
12.5914707190129107
100
AcDbArc
 50
217.9793100877194547
 51
342.7297455219178346
  0
ARC
  5
A2
100
AcDbEntity
  8
HALTERINNER
 62
256
370
-1
  6
ByLayer
100
AcDbCircle
 10
0.0000000000000018
 20
0.0000000000000006
 30
0.0
 40
90.3119593409422095
100
AcDbArc
 50
59.9766972342265703
 51
105.3886523940775817
  0
CIRCLE
  5
A3
100
AcDbEntity
100
AcDbCircle
  8
platte
 62
256
370
-1
  6
ByLayer
 10
-0.000000000000108
 20
165.7500000000000568
 30
0.0
 40
1.5374999999999999
  0
CIRCLE
  5
A4
100
AcDbEntity
100
AcDbCircle
  8
platte
 62
256
370
-1
  6
ByLayer
 10
-165.7500000000002558
 20
-0.0000000000000543
 30
0.0
 40
1.5374999999999999
  0
CIRCLE
  5
A5
100
AcDbEntity
100
AcDbCircle
  8
platte
 62
256
370
-1
  6
ByLayer
 10
-0.0000000000001486
 20
-165.7500000000002274
 30
0.0
 40
1.5374999999999999
  0
ARC
  5
A6
100
AcDbEntity
  8
platte
 62
256
370
-1
  6
ByLayer
100
AcDbCircle
 10
23.176274578121081
 20
-71.3292387221364947
 30
0.0
 40
73.0838324586071337
100
AcDbArc
 50
335.0868032003918415
 51
40.8538930001475151
  0
LINE
  5
A7
100
AcDbEntity
100
AcDbLine
  8
platte
 62
256
370
-1
  6
ByLayer
 10
72.7433622322367626
 20
-28.3834251724101172
 30
0.0
 11
78.4554315726412312
 21
-23.522739490202035
 31
0.0
  0
ARC
  5
A8
100
AcDbEntity
  8
platte
 62
256
370
-1
  6
ByLayer
100
AcDbCircle
 10
23.176274578121081
 20
-71.3292387221364947
 30
0.0
 40
65.5838324586071337
100
AcDbArc
 50
333.8090969493615603
 51
336.7996925913453765
  0
ARC
  5
A9
100
AcDbEntity
  8
platte
 62
256
370
-1
  6
ByLayer
100
AcDbCircle
 10
23.176274578121081
 20
-71.3292387221364947
 30
0.0
 40
65.5838324586071337
100
AcDbArc
 50
336.7996925913453765
 51
40.9062436812502881
  0
LINE
  5
AA
100
AcDbEntity
100
AcDbLine
  8
platte
 62
256
370
-1
  6
ByLayer
 10
82.0265137628510672
 20
-100.2755412124152912
 30
0.0
 11
89.4594382027040069
 21
-102.1154172240961344
 31
0.0
  0
CIRCLE
  5
AB
100
AcDbEntity
100
AcDbCircle
  8
halter
 62
256
370
-1
  6
ByLayer
 10
-0.0000000000001181
 20
-0.0000000000000746
 30
0.0
 40
135.0000000000000853
  0
CIRCLE
  5
AC
100
AcDbEntity
100
AcDbCircle
  8
halter
 62
256
370
-1
  6
ByLayer
 10
86.0516503562137416
 20
-110.4704956405431489
 30
0.0
 40
1.5750000000000002
  0
CIRCLE
  5
AD
100
AcDbEntity
100
AcDbCircle
  8
halter
 62
256
370
-1
  6
ByLayer
 10
-78.4722623832125521
 20
-115.9772433391806743
 30
0.0
 40
1.5750000000000002
  0
CIRCLE
  5
AE
100
AcDbEntity
100
AcDbCircle
  8
halter
 62
256
370
-1
  6
ByLayer
 10
-134.5501756831390026
 20
38.7926173354117623
 30
0.0
 40
1.5750000000000002
  0
LINE
  5
AF
100
AcDbEntity
100
AcDbLine
  8
halter
 62
256
370
-1
  6
ByLayer
 10
-128.6021838057486946
 20
-68.8018954709274198
 30
0.0
 11
-131.3796735485537397
 21
-70.2878465901143983
 31
0.0
  0
CIRCLE
  5
B0
100
AcDbEntity
100
AcDbCircle
  8
halter
 62
256
370
-1
  6
ByLayer
 10
-4.6843193812370725
 20
139.9523993650335285
 30
0.0
 40
1.5750000000000002
  0
CIRCLE
  5
B1
100
AcDbEntity
100
AcDbCircle
  8
halter
 62
256
370
-1
  6
ByLayer
 10
131.6551070913746457
 20
47.702722279278035
 30
0.0
 40
1.5750000000000002
  0
ARC
  5
B2
100
AcDbEntity
  8
halter
 62
256
370
-1
  6
ByLayer
100
AcDbCircle
 10
-0.0000000000000224
 20
-0.0000000000000663
 30
0.0
 40
149.5
100
AcDbArc
 50
95.8201698801357225
 51
136.1466866980217389
  0
ARC
  5
B3
100
AcDbEntity
  8
halter
 62
256
370
-1
  6
ByLayer
100
AcDbCircle
 10
-0.0000000000000224
 20
-0.0000000000000663
 30
0.0
 40
145.3499999999999943
100
AcDbArc
 50
95.8201698801357225
 51
136.1466866980217389
  0
LINE
  5
B4
100
AcDbEntity
100
AcDbLine
  8
halter
 62
256
370
-1
  6
ByLayer
 10
-107.8068242986162488
 20
103.5757627760823141
 30
0.0
 11
-104.8141933899924538
 21
100.7005827391542709
 31
0.0
  0
LINE
  5
B5
100
AcDbEntity
100
AcDbLine
  8
halter
 62
256
370
-1
  6
ByLayer
 10
-15.1602746777808903
 20
148.7293383018098893
 30
0.0
 11
-14.7394376215080438
 21
144.6007312519603261
 31
0.0
  0
ARC
  5
B6
100
AcDbEntity
  8
halter
 62
256
370
-1
  6
ByLayer
100
AcDbCircle
 10
0.000000000000017
 20
-0.0000000000000462
 30
0.0
 40
149.5
100
AcDbArc
 50
167.8201698801357509
 51
208.1466866980217389
  0
ARC
  5
B7
100
AcDbEntity
  8
halter
 62
256
370
-1
  6
ByLayer
100
AcDbCircle
 10
0.000000000000017
 20
-0.0000000000000462
 30
0.0
 40
145.3499999999999943
100
AcDbArc
 50
167.8201698801357509
 51
208.1466866980217389
  0
LINE
  5
B8
100
AcDbEntity
100
AcDbLine
  8
halter
 62
256
370
-1
  6
ByLayer
 10
-131.8205449363005926
 20
-70.5237118471282542
 30
0.0
 11
-128.161312418001927
 21
-68.5660302139136633
 31
0.0
  0
LINE
  5
B9
100
AcDbEntity
100
AcDbLine
  8
halter
 62
256
370
-1
  6
ByLayer
 10
-146.1347888710292011
 20
31.5416150762720591
 30
0.0
 11
-142.0782044307966601
 21
30.6660451594390899
 31
0.0
  0
ARC
  5
BA
100
AcDbEntity
  8
halter
 62
256
370
-1
  6
ByLayer
100
AcDbCircle
 10
-0.000000000000018
 20
-0.0000000000000575
 30
0.0
 40
149.5
100
AcDbArc
 50
239.8201698801357509
 51
280.1466866980217105
  0
ARC
  5
BB
100
AcDbEntity
  8
halter
 62
256
370
-1
  6
ByLayer
100
AcDbCircle
 10
-0.000000000000018
 20
-0.0000000000000575
 30
0.0
 40
145.3499999999999943
100
AcDbArc
 50
239.8201698801357509
 51
280.1466866980217105
  0
LINE
  5
BC
100
AcDbEntity
100
AcDbLine
  8
halter
 62
256
370
-1
  6
ByLayer
 10
26.3372471124496137
 20
-147.1618137104113089
 30
0.0
 11
25.6061462728732536
 21
-143.0767198850052182
 31
0.0
  0
LINE
  5
BD
100
AcDbEntity
100
AcDbLine
  8
halter
 62
256
370
-1
  6
ByLayer
 10
-75.1559917833050264
 20
-129.2355481246077602
 30
0.0
 11
-73.0697217772801793
 21
-125.6480730428878871
 31
0.0
  0
ARC
  5
BE
100
AcDbEntity
  8
halter
 62
256
370
-1
  6
ByLayer
100
AcDbCircle
 10
-0.000000000000018
 20
-0.0000000000000943
 30
0.0
 40
149.5
100
AcDbArc
 50
311.8201698801357225
 51
352.1466866980217105
  0
ARC
  5
BF
100
AcDbEntity
  8
halter
 62
256
370
-1
  6
ByLayer
100
AcDbCircle
 10
-0.000000000000018
 20
-0.0000000000000943
 30
0.0
 40
145.3499999999999943
100
AcDbArc
 50
311.8201698801357225
 51
352.1466866980217105
  0
LINE
  5
C0
100
AcDbEntity
100
AcDbLine
  8
halter
 62
256
370
-1
  6
ByLayer
 10
148.0978588218995071
 20
-20.4272908719863686
 30
0.0
 11
143.9867811355390756
 21
-19.8602456738676842
 31
0.0
  0
LINE
  5
C1
100
AcDbEntity
100
AcDbLine
  8
halter
 62
256
370
-1
  6
ByLayer
 10
99.6858314907388774
 20
-111.4135763720024954
 30
0.0
 11
96.9186328239391202
 21
-108.3208249208733349
 31
0.0
  0
ARC
  5
C2
100
AcDbEntity
  8
halter
 62
256
370
-1
  6
ByLayer
100
AcDbCircle
 10
0.000000000000017
 20
-0.0000000000001057
 30
0.0
 40
149.5
100
AcDbArc
 50
23.8201698801357367
 51
64.1466866980217389
  0
ARC
  5
C3
100
AcDbEntity
  8
halter
 62
256
370
-1
  6
ByLayer
100
AcDbCircle
 10
0.000000000000017
 20
-0.0000000000001057
 30
0.0
 40
145.3499999999999943
100
AcDbArc
 50
23.8201698801357367
 51
64.1466866980217389
  0
LINE
  5
C4
100
AcDbEntity
100
AcDbLine
  8
halter
 62
256
370
-1
  6
ByLayer
 10
65.1922633005677739
 20
134.5370536534431096
 30
0.0
 11
63.3825783995821013
 21
130.802413033631808
 31
0.0
  0
LINE
  5
C5
100
AcDbEntity
100
AcDbLine
  8
halter
 62
256
370
-1
  6
ByLayer
 10
136.7652238413762689
 20
60.378171118527888
 30
0.0
 11
132.9687310056457648
 21
58.7021215523614046
 31
0.0
  0
ARC
  5
C6
100
AcDbEntity
  8
platte
 62
256
370
-1
  6
ByLayer
100
AcDbCircle
 10
74.9999999999999574
 20
-0.0000000000000645
 30
0.0
 40
73.0838324586071337
100
AcDbArc
 50
47.08680320039187
 51
112.8538930001475222
  0
LINE
  5
C7
100
AcDbEntity
100
AcDbLine
  8
platte
 62
256
370
-1
  6
ByLayer
 10
49.473176622730378
 20
60.4120879313431018
 30
0.0
 11
46.6155163302369218
 21
67.3466231791818046
 31
0.0
  0
ARC
  5
C8
100
AcDbEntity
  8
platte
 62
256
370
-1
  6
ByLayer
100
AcDbCircle
 10
74.9999999999999574
 20
-0.0000000000000645
 30
0.0
 40
65.5838324586071337
100
AcDbArc
 50
48.7996925913453907
 51
112.9062436812502881
  0
LINE
  5
C9
100
AcDbEntity
100
AcDbLine
  8
platte
 62
256
370
-1
  6
ByLayer
 10
120.7152936371422811
 20
47.0250040683517412
 30
0.0
 11
124.7620196770459131
 21
53.5255823368512438
 31
0.0
  0
ARC
  5
CA
100
AcDbEntity
  8
platte
 62
256
370
-1
  6
ByLayer
100
AcDbCircle
 10
23.1762745781210775
 20
71.3292387221364095
 30
0.0
 40
73.0838324586071337
100
AcDbArc
 50
119.0868032003919126
 51
184.8538930001475364
  0
LINE
  5
CB
100
AcDbEntity
100
AcDbLine
  8
platte
 62
256
370
-1
  6
ByLayer
 10
-42.1672575479626346
 20
65.7201488453274294
 30
0.0
 11
-49.6454580774289624
 21
65.1452416424678944
 31
0.0
  0
ARC
  5
CC
100
AcDbEntity
  8
platte
 62
256
370
-1
  6
ByLayer
100
AcDbCircle
 10
23.1762745781210775
 20
71.3292387221364095
 30
0.0
 40
65.5838324586071337
100
AcDbArc
 50
120.7996925913453339
 51
184.9062436812502881
  0
LINE
  5
CD
100
AcDbEntity
100
AcDbLine
  8
platte
 62
256
370
-1
  6
ByLayer
 10
-7.4203593331731277
 20
129.3385920477587376
 30
0.0
 11
-12.3522695372063964
 21
135.1960463759011759
 31
0.0
  0
ARC
  5
CE
100
AcDbEntity
  8
platte
 62
256
370
-1
  6
ByLayer
100
AcDbCircle
 10
-60.6762745781209816
 20
44.0838939219354273
 30
0.0
 40
73.0838324586071337
100
AcDbArc
 50
191.0868032003919268
 51
256.8538930001475364
  0
LINE
  5
CF
100
AcDbEntity
100
AcDbLine
  8
platte
 62
256
370
-1
  6
ByLayer
 10
-75.5339749997418153
 20
-19.794802199228652
 30
0.0
 11
-77.2980968091460738
 21
-27.08464963881163
 31
0.0
  0
ARC
  5
D0
100
AcDbEntity
  8
platte
 62
256
370
-1
  6
ByLayer
100
AcDbCircle
 10
-60.6762745781209816
 20
44.0838939219354273
 30
0.0
 40
65.5838324586071337
100
AcDbArc
 50
192.7996925913453481
 51
256.9062436812502597
  0
LINE
  5
D1
100
AcDbEntity
100
AcDbLine
  8
platte
 62
256
370
-1
  6
ByLayer
 10
-125.3013279137807672
 20
32.9106418742199835
 30
0.0
 11
-132.3961420892393335
 21
30.0301694680628017
 31
0.0
  0
ARC
  5
D2
100
AcDbEntity
  8
platte
 62
256
370
-1
  6
ByLayer
100
AcDbCircle
 10
-60.6762745781210171
 20
-44.08389392193547
 30
0.0
 40
73.0838324586071337
100
AcDbArc
 50
263.0868032003918984
 51
328.8538930001475364
  0
LINE
  5
D3
100
AcDbEntity
100
AcDbLine
  8
platte
 62
256
370
-1
  6
ByLayer
 10
-4.5153063072626276
 20
-77.9540094050319539
 30
0.0
 11
1.8726069836969088
 21
-81.8844756926361157
 31
0.0
  0
ARC
  5
D4
100
AcDbEntity
  8
platte
 62
256
370
-1
  6
ByLayer
100
AcDbCircle
 10
-60.6762745781210171
 20
-44.08389392193547
 30
0.0
 40
65.5838324586071337
100
AcDbArc
 50
264.7996925913453197
 51
328.9062436812502597
  0
LINE
  5
D5
100
AcDbEntity
100
AcDbLine
  8
platte
 62
256
370
-1
  6
ByLayer
 10
-70.0201201530393291
 20
-108.9986967779153133
 30
0.0
 11
-69.4730462533041475
 21
-116.6363809567190941
 31
0.0
  0
LINE
  5
D6
100
AcDbEntity
100
AcDbLine
  8
halter
 62
256
370
-1
  6
ByLayer
 10
155.9080267359299512
 20
-2.3006139008985462
 30
0.0
 11
155.9080267359299512
 21
2.3006139008983282
 31
0.0
  0
LINE
  5
D7
100
AcDbEntity
100
AcDbLine
  8
halter
 62
256
370
-1
  6
ByLayer
 10
155.9080267359299512
 20
2.3006139008983282
 30
0.0
 11
155.9398318855650416
 21
2.3015117817029811
 31
0.0
  0
LINE
  5
D8
100
AcDbEntity
100
AcDbLine
  8
halter
 62
256
370
-1
  6
ByLayer
 10
155.9398318855650416
 20
2.3015117817029811
 30
0.0
 11
156.0351831028201559
 21
2.3059182839943366
 31
0.0
  0
LINE
  5
D9
100
AcDbEntity
100
AcDbLine
  8
halter
 62
256
370
-1
  6
ByLayer
 10
156.0351831028201559
 20
2.3059182839943366
 30
0.0
 11
156.1939256704048375
 21
2.316399947659237
 31
0.0
  0
LINE
  5
DA
100
AcDbEntity
100
AcDbLine
  8
halter
 62
256
370
-1
  6
ByLayer
 10
156.1939256704048375
 20
2.316399947659237
 30
0.0
 11
156.4158271432051208
 21
2.335517969903635
 31
0.0
  0
LINE
  5
DB
100
AcDbEntity
100
AcDbLine
  8
halter
 62
256
370
-1
  6
ByLayer
 10
156.4158271432051208
 20
2.335517969903635
 30
0.0
 11
156.7005775098751315
 21
2.3658261129964733
 31
0.0
  0
LINE
  5
DC
100
AcDbEntity
100
AcDbLine
  8
halter
 62
256
370
-1
  6
ByLayer
 10
156.7005775098751315
 20
2.3658261129964733
 30
0.0
 11
157.0477894095600391
 21
2.4098686166704484
 31
0.0
  0
LINE
  5
DD
100
AcDbEntity
100
AcDbLine
  8
halter
 62
256
370
-1
  6
ByLayer
 10
157.0477894095600391
 20
2.4098686166704484
 30
0.0
 11
157.4569984005898675
 21
2.4701781164320042
 31
0.0
  0
LINE
  5
DE
100
AcDbEntity
100
AcDbLine
  8
halter
 62
256
370
-1
  6
ByLayer
 10
157.4569984005898675
 20
2.4701781164320042
 30
0.0
 11
157.9276632814650156
 21
2.5492735690350599
 31
0.0
  0
LINE
  5
DF
100
AcDbEntity
100
AcDbLine
  8
halter
 62
256
370
-1
  6
ByLayer
 10
157.9276632814650156
 20
2.5492735690350599
 30
0.0
 11
158.459166465074901
 21
2.6496581864476778
 31
0.0
  0
LINE
  5
E0
100
AcDbEntity
100
AcDbLine
  8
halter
 62
256
370
-1
  6
ByLayer
 10
158.459166465074901
 20
2.6496581864476778
 30
0.0
 11
159.0508144039501701
 21
2.7738173794998584
 31
0.0
  0
LINE
  5
E1
100
AcDbEntity
100
AcDbLine
  8
halter
 62
256
370
-1
  6
ByLayer
 10
155.7448346008799831
 20
7.4934718326405481
 30
0.0
 11
155.7766333689299927
 21
7.4945727854865858
 31
0.0
  0
LINE
  5
E2
100
AcDbEntity
100
AcDbLine
  8
halter
 62
256
370
-1
  6
ByLayer
 10
155.7766333689299927
 20
7.4945727854865858
 30
0.0
 11
155.8720731188251136
 21
7.4961621308699762
 31
0.0
  0
LINE
  5
E3
100
AcDbEntity
100
AcDbLine
  8
halter
 62
256
370
-1
  6
ByLayer
 10
155.8720731188251136
 20
7.4961621308699762
 30
0.0
 11
156.0311605934550698
 21
7.4956686786765232
 31
0.0
  0
LINE
  5
E4
100
AcDbEntity
100
AcDbLine
  8
halter
 62
256
370
-1
  6
ByLayer
 10
156.0311605934550698
 20
7.4956686786765232
 30
0.0
 11
156.2538246248701341
 21
7.490521690249202
 31
0.0
  0
LINE
  5
E5
100
AcDbEntity
100
AcDbLine
  8
halter
 62
256
370
-1
  6
ByLayer
 10
156.2538246248701341
 20
7.490521690249202
 30
0.0
 11
156.5399161657799425
 21
7.4781529767944006
 31
0.0
  0
LINE
  5
E6
100
AcDbEntity
100
AcDbLine
  8
halter
 62
256
370
-1
  6
ByLayer
 10
156.5399161657799425
 20
7.4781529767944006
 30
0.0
 11
156.8892083736601535
 21
7.4559989965229416
 31
0.0
  0
LINE
  5
E7
100
AcDbEntity
100
AcDbLine
  8
halter
 62
256
370
-1
  6
ByLayer
 10
156.8892083736601535
 20
7.4559989965229416
 30
0.0
 11
157.3013967490351206
 21
7.4215029489296755
 31
0.0
  0
LINE
  5
E8
100
AcDbEntity
100
AcDbLine
  8
halter
 62
256
370
-1
  6
ByLayer
 10
157.3013967490351206
 20
7.4215029489296755
 30
0.0
 11
157.7760993251100672
 21
7.3721168655117992
 31
0.0
  0
LINE
  5
E9
100
AcDbEntity
100
AcDbLine
  8
halter
 62
256
370
-1
  6
ByLayer
 10
157.7760993251100672
 20
7.3721168655117992
 30
0.0
 11
158.3128569109498756
 21
7.3053036952554926
 31
0.0
  0
LINE
  5
EA
100
AcDbEntity
100
AcDbLine
  8
halter
 62
256
370
-1
  6
ByLayer
 10
158.3128569109498756
 20
7.3053036952554926
 30
0.0
 11
158.9111333878950632
 21
7.218539383481736
 31
0.0
  0
LINE
  5
EB
100
AcDbEntity
100
AcDbLine
  8
halter
 62
256
370
-1
  6
ByLayer
 10
159.0508144039501701
 20
2.7738173794998584
 30
0.0
 11
159.0508144026899515
 21
2.773817379473833
 31
0.0
  0
LINE
  5
EC
100
AcDbEntity
100
AcDbLine
  8
halter
 62
256
370
-1
  6
ByLayer
 10
159.0508144026899515
 20
2.773817379473833
 30
0.0
 11
158.9111333863200741
 21
7.2185393834191514
 31
0.0
  0
LINE
  5
ED
100
AcDbEntity
100
AcDbLine
  8
halter
 62
256
370
-1
  6
ByLayer
 10
155.7448346008799831
 20
7.4934718326405481
 30
0.0
 11
155.4559211167199635
 21
12.0856201624304642
 31
0.0
  0
LINE
  5
EE
100
AcDbEntity
100
AcDbLine
  8
halter
 62
256
370
-1
  6
ByLayer
 10
155.4559211167199635
 20
12.0856201624304642
 30
0.0
 11
155.4876071279998371
 21
12.0885133333543617
 31
0.0
  0
LINE
  5
EF
100
AcDbEntity
100
AcDbLine
  8
halter
 62
256
370
-1
  6
ByLayer
 10
155.4876071279998371
 20
12.0885133333543617
 30
0.0
 11
155.582493504480027
 21
12.0988982928554485
 31
0.0
  0
LINE
  5
F0
100
AcDbEntity
100
AcDbLine
  8
halter
 62
256
370
-1
  6
ByLayer
 10
155.582493504480027
 20
12.0988982928554485
 30
0.0
 11
155.740264681049922
 21
12.1193268016587581
 31
0.0
  0
LINE
  5
F1
100
AcDbEntity
100
AcDbLine
  8
halter
 62
256
370
-1
  6
ByLayer
 10
155.740264681049922
 20
12.1193268016587581
 30
0.0
 11
155.9605278514499958
 21
12.152340407623365
 31
0.0
  0
LINE
  5
F2
100
AcDbEntity
100
AcDbLine
  8
halter
 62
256
370
-1
  6
ByLayer
 10
155.9605278514499958
 20
12.152340407623365
 30
0.0
 11
156.2428132640549734
 21
12.2004683679690515
 31
0.0
  0
LINE
  5
F3
100
AcDbEntity
100
AcDbLine
  8
halter
 62
256
370
-1
  6
ByLayer
 10
156.2428132640549734
 20
12.2004683679690515
 30
0.0
 11
156.5865745686898833
 21
12.2662255793803663
 31
0.0
  0
LINE
  5
F4
100
AcDbEntity
100
AcDbLine
  8
halter
 62
256
370
-1
  6
ByLayer
 10
156.5865745686898833
 20
12.2662255793803663
 30
0.0
 11
156.9911892144749856
 21
12.3521105172778505
 31
0.0
  0
LINE
  5
F5
100
AcDbEntity
100
AcDbLine
  8
halter
 62
256
370
-1
  6
ByLayer
 10
156.9911892144749856
 20
12.3521105172778505
 30
0.0
 11
157.4559589012199012
 21
12.4606031854813484
 31
0.0
  0
LINE
  5
F6
100
AcDbEntity
100
AcDbLine
  8
halter
 62
256
370
-1
  6
ByLayer
 10
157.4559589012199012
 20
12.4606031854813484
 30
0.0
 11
157.9801100827949085
 21
12.5941630778144003
 31
0.0
  0
LINE
  5
F7
100
AcDbEntity
100
AcDbLine
  8
halter
 62
256
370
-1
  6
ByLayer
 10
157.9801100827949085
 20
12.5941630778144003
 30
0.0
 11
158.562794519009941
 21
12.7552271524963778
 31
0.0
  0
LINE
  5
F8
100
AcDbEntity
100
AcDbLine
  8
halter
 62
256
370
-1
  6
ByLayer
 10
154.9669887571051561
 20
17.2579842562994408
 30
0.0
 11
154.9986556478849025
 21
17.2610796978268297
 31
0.0
  0
LINE
  5
F9
100
AcDbEntity
100
AcDbLine
  8
halter
 62
256
370
-1
  6
ByLayer
 10
154.9986556478849025
 20
17.2610796978268297
 30
0.0
 11
155.093807273265071
 21
17.2686586184908997
 31
0.0
  0
LINE
  5
FA
100
AcDbEntity
100
AcDbLine
  8
halter
 62
256
370
-1
  6
ByLayer
 10
155.093807273265071
 20
17.2686586184908997
 30
0.0
 11
155.2526118092251295
 21
17.2781553251789859
 31
0.0
  0
LINE
  5
FB
100
AcDbEntity
100
AcDbLine
  8
halter
 62
256
370
-1
  6
ByLayer
 10
155.2526118092251295
 20
17.2781553251789859
 30
0.0
 11
155.4751596462751309
 21
17.2869996833729793
 31
0.0
  0
LINE
  5
FC
100
AcDbEntity
100
AcDbLine
  8
halter
 62
256
370
-1
  6
ByLayer
 10
155.4751596462751309
 20
17.2869996833729793
 30
0.0
 11
155.7614632886551647
 21
17.2926192132539533
 31
0.0
  0
LINE
  5
FD
100
AcDbEntity
100
AcDbLine
  8
halter
 62
256
370
-1
  6
ByLayer
 10
155.7614632886551647
 20
17.2926192132539533
 30
0.0
 11
156.1114573083448533
 21
17.2924411879800495
 31
0.0
  0
LINE
  5
FE
100
AcDbEntity
100
AcDbLine
  8
halter
 62
256
370
-1
  6
ByLayer
 10
156.1114573083448533
 20
17.2924411879800495
 30
0.0
 11
156.5249983488450596
 21
17.2838947326884202
 31
0.0
  0
LINE
  5
FF
100
AcDbEntity
100
AcDbLine
  8
halter
 62
256
370
-1
  6
ByLayer
 10
156.5249983488450596
 20
17.2838947326884202
 30
0.0
 11
157.0018651853399092
 21
17.2644129228059491
 31
0.0
  0
LINE
  5
100
100
AcDbEntity
100
AcDbLine
  8
halter
 62
256
370
-1
  6
ByLayer
 10
157.0018651853399092
 20
17.2644129228059491
 30
0.0
 11
157.5417588365248776
 21
17.2314348807508395
 31
0.0
  0
LINE
  5
101
100
AcDbEntity
100
AcDbLine
  8
halter
 62
256
370
-1
  6
ByLayer
 10
157.5417588365248776
 20
17.2314348807508395
 30
0.0
 11
158.144302727774857
 21
17.1824078693293778
 31
0.0
  0
LINE
  5
102
100
AcDbEntity
100
AcDbLine
  8
halter
 62
256
370
-1
  6
ByLayer
 10
158.562794519009941
 20
12.7552271524963778
 30
0.0
 11
158.5627945177500919
 21
12.7552271524020888
 31
0.0
  0
LINE
  5
103
100
AcDbEntity
100
AcDbLine
  8
halter
 62
256
370
-1
  6
ByLayer
 10
158.5627945177500919
 20
12.7552271524020888
 30
0.0
 11
158.1443027265150079
 21
17.1824078691719215
 31
0.0
  0
LINE
  5
104
100
AcDbEntity
100
AcDbLine
  8
halter
 62
256
370
-1
  6
ByLayer
 10
154.9669887571051561
 20
17.2579842562994408
 30
0.0
 11
154.3903019983800675
 21
21.8229300025694144
 31
0.0
  0
LINE
  5
105
100
AcDbEntity
100
AcDbLine
  8
halter
 62
256
370
-1
  6
ByLayer
 10
154.3903019983800675
 20
21.8229300025694144
 30
0.0
 11
154.4217438207149087
 21
21.8278070455723423
 31
0.0
  0
LINE
  5
106
100
AcDbEntity
100
AcDbLine
  8
halter
 62
256
370
-1
  6
ByLayer
 10
154.4217438207149087
 20
21.8278070455723423
 30
0.0
 11
154.5157908834748923
 21
21.8441294776215749
 31
0.0
  0
LINE
  5
107
100
AcDbEntity
100
AcDbLine
  8
halter
 62
256
370
-1
  6
ByLayer
 10
154.5157908834748923
 20
21.8441294776215749
 30
0.0
 11
154.6719680179801628
 21
21.8744242095642925
 31
0.0
  0
LINE
  5
108
100
AcDbEntity
100
AcDbLine
  8
halter
 62
256
370
-1
  6
ByLayer
 10
154.6719680179801628
 20
21.8744242095642925
 30
0.0
 11
154.8897236078851734
 21
21.9212031096135647
 31
0.0
  0
LINE
  5
109
100
AcDbEntity
100
AcDbLine
  8
halter
 62
256
370
-1
  6
ByLayer
 10
154.8897236078851734
 20
21.9212031096135647
 30
0.0
 11
155.1684300150598972
 21
21.9869609481584938
 31
0.0
  0
LINE
  5
10A
100
AcDbEntity
100
AcDbLine
  8
halter
 62
256
370
-1
  6
ByLayer
 10
155.1684300150598972
 20
21.9869609481584938
 30
0.0
 11
155.507384055870034
 21
22.074173353669476
 31
0.0
  0
LINE
  5
10B
100
AcDbEntity
100
AcDbLine
  8
halter
 62
256
370
-1
  6
ByLayer
 10
155.507384055870034
 20
22.074173353669476
 30
0.0
 11
155.905807527225079
 21
22.1852947810408914
 31
0.0
  0
LINE
  5
10C
100
AcDbEntity
100
AcDbLine
  8
halter
 62
256
370
-1
  6
ByLayer
 10
155.905807527225079
 20
22.1852947810408914
 30
0.0
 11
156.3628477861801116
 21
22.3227564938278995
 31
0.0
  0
LINE
  5
10D
100
AcDbEntity
100
AcDbLine
  8
halter
 62
256
370
-1
  6
ByLayer
 10
156.3628477861801116
 20
22.3227564938278995
 30
0.0
 11
156.8775783799350449
 21
22.4889645612239377
 31
0.0
  0
LINE
  5
10E
100
AcDbEntity
100
AcDbLine
  8
halter
 62
256
370
-1
  6
ByLayer
 10
156.8775783799350449
 20
22.4889645612239377
 30
0.0
 11
157.4489997246598421
 21
22.6862978712613454
 31
0.0
  0
LINE
  5
10F
100
AcDbEntity
100
AcDbLine
  8
halter
 62
256
370
-1
  6
ByLayer
 10
153.5775590059199374
 20
26.9543873005470296
 30
0.0
 11
153.6089690453849244
 21
26.9594650144259163
 31
0.0
  0
LINE
  5
110
100
AcDbEntity
100
AcDbLine
  8
halter
 62
256
370
-1
  6
ByLayer
 10
153.6089690453849244
 20
26.9594650144259163
 30
0.0
 11
153.7034570262450188
 21
26.9730035998289992
 31
0.0
  0
LINE
  5
111
100
AcDbEntity
100
AcDbLine
  8
halter
 62
256
370
-1
  6
ByLayer
 10
153.7034570262450188
 20
26.9730035998289992
 30
0.0
 11
153.861351894494959
 21
26.9924529862574403
 31
0.0
  0
LINE
  5
112
100
AcDbEntity
100
AcDbLine
  8
halter
 62
256
370
-1
  6
ByLayer
 10
153.861351894494959
 20
26.9924529862574403
 30
0.0
 11
154.0829052422101597
 21
27.0152537864263564
 31
0.0
  0
LINE
  5
113
100
AcDbEntity
100
AcDbLine
  8
halter
 62
256
370
-1
  6
ByLayer
 10
154.0829052422101597
 20
27.0152537864263564
 30
0.0
 11
154.3682910769650789
 21
27.0388393818794164
 31
0.0
  0
LINE
  5
114
100
AcDbEntity
100
AcDbLine
  8
halter
 62
256
370
-1
  6
ByLayer
 10
154.3682910769650789
 20
27.0388393818794164
 30
0.0
 11
154.7176056413399294
 21
27.0606380142418779
 31
0.0
  0
LINE
  5
115
100
AcDbEntity
100
AcDbLine
  8
halter
 62
256
370
-1
  6
ByLayer
 10
154.7176056413399294
 20
27.0606380142418779
 30
0.0
 11
155.1308672894400331
 21
27.0780748801919806
 31
0.0
  0
LINE
  5
116
100
AcDbEntity
100
AcDbLine
  8
halter
 62
256
370
-1
  6
ByLayer
 10
155.1308672894400331
 20
27.0780748801919806
 30
0.0
 11
155.6080164112950399
 21
27.0885742296433634
 31
0.0
  0
LINE
  5
117
100
AcDbEntity
100
AcDbLine
  8
halter
 62
256
370
-1
  6
ByLayer
 10
155.6080164112950399
 20
27.0885742296433634
 30
0.0
 11
156.1489154139599691
 21
27.0895614650639907
 31
0.0
  0
LINE
  5
118
100
AcDbEntity
100
AcDbLine
  8
halter
 62
256
370
-1
  6
ByLayer
 10
156.1489154139599691
 20
27.0895614650639907
 30
0.0
 11
156.7533487539599264
 21
27.0784652412330225
 31
0.0
  0
LINE
  5
119
100
AcDbEntity
100
AcDbLine
  8
halter
 62
256
370
-1
  6
ByLayer
 10
157.4489997246598421
 20
22.6862978712613454
 30
0.0
 11
157.4489997234000214
 21
22.6862978710725436
 31
0.0
  0
LINE
  5
11A
100
AcDbEntity
100
AcDbLine
  8
halter
 62
256
370
-1
  6
ByLayer
 10
157.4489997234000214
 20
22.6862978710725436
 30
0.0
 11
156.7533487527000773
 21
27.0784652409809325
 31
0.0
  0
LINE
  5
11B
100
AcDbEntity
100
AcDbLine
  8
halter
 62
256
370
-1
  6
ByLayer
 10
153.5775590059199374
 20
26.9543873005470296
 30
0.0
 11
152.715374891729823
 21
31.4741147079239596
 31
0.0
  0
LINE
  5
11C
100
AcDbEntity
100
AcDbLine
  8
halter
 62
256
370
-1
  6
ByLayer
 10
152.715374891729823
 20
31.4741147079239596
 30
0.0
 11
152.7464484387451193
 21
31.4809563755924877
 31
0.0
  0
LINE
  5
11D
100
AcDbEntity
100
AcDbLine
  8
halter
 62
256
370
-1
  6
ByLayer
 10
152.7464484387451193
 20
31.4809563755924877
 30
0.0
 11
152.8392850273799013
 21
31.5031518629099381
 31
0.0
  0
LINE
  5
11E
100
AcDbEntity
100
AcDbLine
  8
halter
 62
256
370
-1
  6
ByLayer
 10
152.8392850273799013
 20
31.5031518629099381
 30
0.0
 11
152.9932517599499704
 21
31.54319325863991
 31
0.0
  0
LINE
  5
11F
100
AcDbEntity
100
AcDbLine
  8
halter
 62
256
370
-1
  6
ByLayer
 10
152.9932517599499704
 20
31.54319325863991
 30
0.0
 11
153.2076403876198754
 21
31.60355283791991
 31
0.0
  0
LINE
  5
120
100
AcDbEntity
100
AcDbLine
  8
halter
 62
256
370
-1
  6
ByLayer
 10
153.2076403876198754
 20
31.60355283791991
 30
0.0
 11
153.481667862600176
 21
31.6866810383549513
 31
0.0
  0
LINE
  5
121
100
AcDbEntity
100
AcDbLine
  8
halter
 62
256
370
-1
  6
ByLayer
 10
153.481667862600176
 20
31.6866810383549513
 30
0.0
 11
153.8144769426300229
 21
31.7950044504749485
 31
0.0
  0
LINE
  5
122
100
AcDbEntity
100
AcDbLine
  8
halter
 62
256
370
-1
  6
ByLayer
 10
153.8144769426300229
 20
31.7950044504749485
 30
0.0
 11
154.2051368439748273
 21
31.9309238218949929
 31
0.0
  0
LINE
  5
123
100
AcDbEntity
100
AcDbLine
  8
halter
 62
256
370
-1
  6
ByLayer
 10
154.2051368439748273
 20
31.9309238218949929
 30
0.0
 11
154.6526439460799622
 21
32.0968120806898867
 31
0.0
  0
LINE
  5
124
100
AcDbEntity
100
AcDbLine
  8
halter
 62
256
370
-1
  6
ByLayer
 10
154.6526439460799622
 20
32.0968120806898867
 30
0.0
 11
155.1559225456800846
 21
32.2950123757799261
 31
0.0
  0
LINE
  5
125
100
AcDbEntity
100
AcDbLine
  8
halter
 62
256
370
-1
  6
ByLayer
 10
155.1559225456800846
 20
32.2950123757799261
 30
0.0
 11
155.7138256600499346
 21
32.5278361368448827
 31
0.0
  0
LINE
  5
126
100
AcDbEntity
100
AcDbLine
  8
halter
 62
256
370
-1
  6
ByLayer
 10
151.5820287926702008
 20
36.5444136924298846
 30
0.0
 11
151.6130580188699355
 21
36.5514536393999592
 31
0.0
  0
LINE
  5
127
100
AcDbEntity
100
AcDbLine
  8
halter
 62
256
370
-1
  6
ByLayer
 10
151.6130580188699355
 20
36.5514536393999592
 30
0.0
 11
151.7065094547448609
 21
36.5708984586749111
 31
0.0
  0
LINE
  5
128
100
AcDbEntity
100
AcDbLine
  8
halter
 62
256
370
-1
  6
ByLayer
 10
151.7065094547448609
 20
36.5708984586749111
 30
0.0
 11
151.8628715166148879
 21
36.6002237670299522
 31
0.0
  0
LINE
  5
129
100
AcDbEntity
100
AcDbLine
  8
halter
 62
256
370
-1
  6
ByLayer
 10
151.8628715166148879
 20
36.6002237670299522
 30
0.0
 11
152.082556005239951
 21
36.6368910248250046
 31
0.0
  0
LINE
  5
12A
100
AcDbEntity
100
AcDbLine
  8
halter
 62
256
370
-1
  6
ByLayer
 10
152.082556005239951
 20
36.6368910248250046
 30
0.0
 11
152.3658977442001117
 21
36.6783496042949508
 31
0.0
  0
LINE
  5
12B
100
AcDbEntity
100
AcDbLine
  8
halter
 62
256
370
-1
  6
ByLayer
 10
152.3658977442001117
 20
36.6783496042949508
 30
0.0
 11
152.7131542689899959
 21
36.722038865084933
 31
0.0
  0
LINE
  5
12C
100
AcDbEntity
100
AcDbLine
  8
halter
 62
256
370
-1
  6
ByLayer
 10
152.7131542689899959
 20
36.722038865084933
 30
0.0
 11
153.1245055696651605
 21
36.7653902370300329
 31
0.0
  0
LINE
  5
12D
100
AcDbEntity
100
AcDbLine
  8
halter
 62
256
370
-1
  6
ByLayer
 10
153.1245055696651605
 20
36.7653902370300329
 30
0.0
 11
153.6000538870350169
 21
36.8058293095500133
 31
0.0
  0
LINE
  5
12E
100
AcDbEntity
100
AcDbLine
  8
halter
 62
256
370
-1
  6
ByLayer
 10
153.6000538870350169
 20
36.8058293095500133
 30
0.0
 11
154.1398235602049169
 21
36.8407779263999515
 31
0.0
  0
LINE
  5
12F
100
AcDbEntity
100
AcDbLine
  8
halter
 62
256
370
-1
  6
ByLayer
 10
154.1398235602049169
 20
36.8407779263999515
 30
0.0
 11
154.7437609267201992
 21
36.8676562816799276
 31
0.0
  0
LINE
  5
130
100
AcDbEntity
100
AcDbLine
  8
halter
 62
256
370
-1
  6
ByLayer
 10
154.7437609267201992
 20
36.8676562816799276
 30
0.0
 11
154.7437609254599806
 21
36.8676562813650008
 31
0.0
  0
LINE
  5
131
100
AcDbEntity
100
AcDbLine
  8
halter
 62
256
370
-1
  6
ByLayer
 10
155.7138256587900855
 20
32.5278361365299702
 30
0.0
 11
154.7437609254599806
 21
36.8676562813650008
 31
0.0
  0
LINE
  5
132
100
AcDbEntity
100
AcDbLine
  8
halter
 62
256
370
-1
  6
ByLayer
 10
151.5820287926702008
 20
36.5444136924298846
 30
0.0
 11
150.4377499697100973
 21
41.0010854617349381
 31
0.0
  0
LINE
  5
133
100
AcDbEntity
100
AcDbLine
  8
halter
 62
256
370
-1
  6
ByLayer
 10
150.4377499697100973
 20
41.0010854617349381
 30
0.0
 11
150.4683326084398232
 21
41.0098647530249423
 31
0.0
  0
LINE
  5
134
100
AcDbEntity
100
AcDbLine
  8
halter
 62
256
370
-1
  6
ByLayer
 10
150.4683326084398232
 20
41.0098647530249423
 30
0.0
 11
150.5595923388900701
 21
41.0378457002849117
 31
0.0
  0
LINE
  5
135
100
AcDbEntity
100
AcDbLine
  8
halter
 62
256
370
-1
  6
ByLayer
 10
150.5595923388900701
 20
41.0378457002849117
 30
0.0
 11
150.7107410332651227
 21
41.0874757344449151
 31
0.0
  0
LINE
  5
136
100
AcDbEntity
100
AcDbLine
  8
halter
 62
256
370
-1
  6
ByLayer
 10
150.7107410332651227
 20
41.0874757344449151
 30
0.0
 11
150.9209166046051394
 21
41.1611777813249446
 31
0.0
  0
LINE
  5
137
100
AcDbEntity
100
AcDbLine
  8
halter
 62
256
370
-1
  6
ByLayer
 10
150.9209166046051394
 20
41.1611777813249446
 30
0.0
 11
151.1891836859250304
 21
41.2613482749299934
 31
0.0
  0
LINE
  5
138
100
AcDbEntity
100
AcDbLine
  8
halter
 62
256
370
-1
  6
ByLayer
 10
151.1891836859250304
 20
41.2613482749299934
 30
0.0
 11
151.5145343600700585
 21
41.3903551902748958
 31
0.0
  0
LINE
  5
139
100
AcDbEntity
100
AcDbLine
  8
halter
 62
256
370
-1
  6
ByLayer
 10
151.5145343600700585
 20
41.3903551902748958
 30
0.0
 11
151.8958889355600377
 21
41.5505360941649187
 31
0.0
  0
LINE
  5
13A
100
AcDbEntity
100
AcDbLine
  8
halter
 62
256
370
-1
  6
ByLayer
 10
151.8958889355600377
 20
41.5505360941649187
 30
0.0
 11
152.3320967747250165
 21
41.7441962136149556
 31
0.0
  0
LINE
  5
13B
100
AcDbEntity
100
AcDbLine
  8
halter
 62
256
370
-1
  6
ByLayer
 10
152.3320967747250165
 20
41.7441962136149556
 30
0.0
 11
152.8219371694049471
 21
41.9736065307299668
 31
0.0
  0
LINE
  5
13C
100
AcDbEntity
100
AcDbLine
  8
halter
 62
256
370
-1
  6
ByLayer
 10
152.8219371694049471
 20
41.9736065307299668
 30
0.0
 11
153.364120264529987
 21
42.2410018933349534
 31
0.0
  0
LINE
  5
13D
100
AcDbEntity
100
AcDbLine
  8
halter
 62
256
370
-1
  6
ByLayer
 10
148.9882735627648174
 20
45.9902159788049474
 30
0.0
 11
149.0187995181899225
 21
45.9991903754249307
 31
0.0
  0
LINE
  5
13E
100
AcDbEntity
100
AcDbLine
  8
halter
 62
256
370
-1
  6
ByLayer
 10
149.0187995181899225
 20
45.9991903754249307
 30
0.0
 11
149.1108455985748265
 21
46.0244646889649687
 31
0.0
  0
LINE
  5
13F
100
AcDbEntity
100
AcDbLine
  8
halter
 62
256
370
-1
  6
ByLayer
 10
149.1108455985748265
 20
46.0244646889649687
 30
0.0
 11
149.2650577640248741
 21
46.0635501856949929
 31
0.0
  0
LINE
  5
140
100
AcDbEntity
100
AcDbLine
  8
halter
 62
256
370
-1
  6
ByLayer
 10
149.2650577640248741
 20
46.0635501856949929
 30
0.0
 11
149.4820063995299222
 21
46.1139391921949411
 31
0.0
  0
LINE
  5
141
100
AcDbEntity
100
AcDbLine
  8
halter
 62
256
370
-1
  6
ByLayer
 10
149.4820063995299222
 20
46.1139391921949411
 30
0.0
 11
149.7621858226199834
 21
46.1731071378149736
 31
0.0
  0
LINE
  5
142
100
AcDbEntity
100
AcDbLine
  8
halter
 62
256
370
-1
  6
ByLayer
 10
149.7621858226199834
 20
46.1731071378149736
 30
0.0
 11
150.106013844255159
 21
46.2385146053249301
 31
0.0
  0
LINE
  5
143
100
AcDbEntity
100
AcDbLine
  8
halter
 62
256
370
-1
  6
ByLayer
 10
150.106013844255159
 20
46.2385146053249301
 30
0.0
 11
150.5138313820050087
 21
46.3076093951099566
 31
0.0
  0
LINE
  5
144
100
AcDbEntity
100
AcDbLine
  8
halter
 62
256
370
-1
  6
ByLayer
 10
150.5138313820050087
 20
46.3076093951099566
 30
0.0
 11
150.9859021233149292
 21
46.3778285962950179
 31
0.0
  0
LINE
  5
145
100
AcDbEntity
100
AcDbLine
  8
halter
 62
256
370
-1
  6
ByLayer
 10
150.9859021233149292
 20
46.3778285962950179
 30
0.0
 11
151.5224122423202004
 21
46.4466006679499586
 31
0.0
  0
LINE
  5
146
100
AcDbEntity
100
AcDbLine
  8
halter
 62
256
370
-1
  6
ByLayer
 10
151.5224122423202004
 20
46.4466006679499586
 30
0.0
 11
152.1234701705249961
 21
46.5113475262799057
 31
0.0
  0
LINE
  5
147
100
AcDbEntity
100
AcDbLine
  8
halter
 62
256
370
-1
  6
ByLayer
 10
152.1234701705249961
 20
46.5113475262799057
 30
0.0
 11
152.123470169265147
 21
46.5113475259649007
 31
0.0
  0
LINE
  5
148
100
AcDbEntity
100
AcDbLine
  8
halter
 62
256
370
-1
  6
ByLayer
 10
153.364120262954998
 20
42.2410018930199413
 30
0.0
 11
152.123470169265147
 21
46.5113475259649007
 31
0.0
  0
LINE
  5
149
100
AcDbEntity
100
AcDbLine
  8
halter
 62
256
370
-1
  6
ByLayer
 10
148.9882735627648174
 20
45.9902159788049474
 30
0.0
 11
147.5664159768749926
 21
50.3662436628749433
 31
0.0
  0
LINE
  5
14A
100
AcDbEntity
100
AcDbLine
  8
halter
 62
256
370
-1
  6
ByLayer
 10
147.5664159768749926
 20
50.3662436628749433
 30
0.0
 11
147.5963870116051169
 21
50.3769259299599028
 31
0.0
  0
LINE
  5
14B
100
AcDbEntity
100
AcDbLine
  8
halter
 62
256
370
-1
  6
ByLayer
 10
147.5963870116051169
 20
50.3769259299599028
 30
0.0
 11
147.6857097235799472
 21
50.4105819090298937
 31
0.0
  0
LINE
  5
14C
100
AcDbEntity
100
AcDbLine
  8
halter
 62
256
370
-1
  6
ByLayer
 10
147.6857097235799472
 20
50.4105819090298937
 30
0.0
 11
147.8334438648900857
 21
50.4696047149349241
 31
0.0
  0
LINE
  5
14D
100
AcDbEntity
100
AcDbLine
  8
halter
 62
256
370
-1
  6
ByLayer
 10
147.8334438648900857
 20
50.4696047149349241
 30
0.0
 11
148.0385769127649951
 21
50.5563583606199529
 31
0.0
  0
LINE
  5
14E
100
AcDbEntity
100
AcDbLine
  8
halter
 62
256
370
-1
  6
ByLayer
 10
148.0385769127649951
 20
50.5563583606199529
 30
0.0
 11
148.3000248731399893
 21
50.6731758201899609
 31
0.0
  0
LINE
  5
14F
100
AcDbEntity
100
AcDbLine
  8
halter
 62
256
370
-1
  6
ByLayer
 10
148.3000248731399893
 20
50.6731758201899609
 30
0.0
 11
148.616633130839972
 21
50.8223571077249048
 31
0.0
  0
LINE
  5
150
100
AcDbEntity
100
AcDbLine
  8
halter
 62
256
370
-1
  6
ByLayer
 10
148.616633130839972
 20
50.8223571077249048
 30
0.0
 11
148.9871773479599426
 21
51.0061673831849305
 31
0.0
  0
LINE
  5
151
100
AcDbEntity
100
AcDbLine
  8
halter
 62
256
370
-1
  6
ByLayer
 10
148.9871773479599426
 20
51.0061673831849305
 30
0.0
 11
149.4103644110698781
 21
51.2268350756399329
 31
0.0
  0
LINE
  5
152
100
AcDbEntity
100
AcDbLine
  8
halter
 62
256
370
-1
  6
ByLayer
 10
149.4103644110698781
 20
51.2268350756399329
 30
0.0
 11
149.8848334244100897
 21
51.4865500364249442
 31
0.0
  0
LINE
  5
153
100
AcDbEntity
100
AcDbLine
  8
halter
 62
256
370
-1
  6
ByLayer
 10
149.8848334244100897
 20
51.4865500364249442
 30
0.0
 11
150.4091567515950771
 21
51.7874617137149613
 31
0.0
  0
LINE
  5
154
100
AcDbEntity
100
AcDbLine
  8
halter
 62
256
370
-1
  6
ByLayer
 10
145.806529683464845
 20
55.2545158939199652
 30
0.0
 11
145.8364318957349042
 21
55.2653893219049692
 31
0.0
  0
LINE
  5
155
100
AcDbEntity
100
AcDbLine
  8
halter
 62
256
370
-1
  6
ByLayer
 10
145.8364318957349042
 20
55.2653893219049692
 30
0.0
 11
145.9267093569598899
 21
55.2963933840149409
 31
0.0
  0
LINE
  5
156
100
AcDbEntity
100
AcDbLine
  8
halter
 62
256
370
-1
  6
ByLayer
 10
145.9267093569598899
 20
55.2963933840149409
 30
0.0
 11
146.0781630214201243
 21
55.3450848161399733
 31
0.0
  0
LINE
  5
157
100
AcDbEntity
100
AcDbLine
  8
halter
 62
256
370
-1
  6
ByLayer
 10
146.0781630214201243
 20
55.3450848161399733
 30
0.0
 11
146.2915196063999304
 21
55.4089967090099336
 31
0.0
  0
LINE
  5
158
100
AcDbEntity
100
AcDbLine
  8
halter
 62
256
370
-1
  6
ByLayer
 10
146.2915196063999304
 20
55.4089967090099336
 30
0.0
 11
146.5674309732151244
 21
55.4856405115949372
 31
0.0
  0
LINE
  5
159
100
AcDbEntity
100
AcDbLine
  8
halter
 62
256
370
-1
  6
ByLayer
 10
146.5674309732151244
 20
55.4856405115949372
 30
0.0
 11
146.9064735602101734
 21
55.5725080527749427
 31
0.0
  0
LINE
  5
15A
100
AcDbEntity
100
AcDbLine
  8
halter
 62
256
370
-1
  6
ByLayer
 10
146.9064735602101734
 20
55.5725080527749427
 30
0.0
 11
147.3091478655300932
 21
55.6670735746650038
 31
0.0
  0
LINE
  5
15B
100
AcDbEntity
100
AcDbLine
  8
halter
 62
256
370
-1
  6
ByLayer
 10
147.3091478655300932
 20
55.6670735746650038
 30
0.0
 11
147.7758779828101581
 21
55.7667957813749311
 31
0.0
  0
LINE
  5
15C
100
AcDbEntity
100
AcDbLine
  8
halter
 62
256
370
-1
  6
ByLayer
 10
147.7758779828101581
 20
55.7667957813749311
 30
0.0
 11
148.3070111875798318
 21
55.869119896274924
 31
0.0
  0
LINE
  5
15D
100
AcDbEntity
100
AcDbLine
  8
halter
 62
256
370
-1
  6
ByLayer
 10
148.3070111875798318
 20
55.869119896274924
 30
0.0
 11
148.9028175762749413
 21
55.971479730914929
 31
0.0
  0
LINE
  5
15E
100
AcDbEntity
100
AcDbLine
  8
halter
 62
256
370
-1
  6
ByLayer
 10
148.9028175762749413
 20
55.971479730914929
 30
0.0
 11
148.9028175750150922
 21
55.9714797305999809
 31
0.0
  0
LINE
  5
15F
100
AcDbEntity
100
AcDbLine
  8
halter
 62
256
370
-1
  6
ByLayer
 10
150.4091567500200881
 20
51.7874617133999848
 30
0.0
 11
148.9028175750150922
 21
55.9714797305999809
 31
0.0
  0
LINE
  5
160
100
AcDbEntity
100
AcDbLine
  8
halter
 62
256
370
-1
  6
ByLayer
 10
145.806529683464845
 20
55.2545158939199652
 30
0.0
 11
144.1127047572448419
 21
59.5326293103149169
 31
0.0
  0
LINE
  5
161
100
AcDbEntity
100
AcDbLine
  8
halter
 62
256
370
-1
  6
ByLayer
 10
144.1127047572448419
 20
59.5326293103149169
 30
0.0
 11
144.1419459054750405
 21
59.5451723951699634
 31
0.0
  0
LINE
  5
162
100
AcDbEntity
100
AcDbLine
  8
halter
 62
256
370
-1
  6
ByLayer
 10
144.1419459054750405
 20
59.5451723951699634
 30
0.0
 11
144.2289790834199152
 21
59.5843705815749303
 31
0.0
  0
LINE
  5
163
100
AcDbEntity
100
AcDbLine
  8
halter
 62
256
370
-1
  6
ByLayer
 10
144.2289790834199152
 20
59.5843705815749303
 30
0.0
 11
144.3727156321798191
 21
59.6525532227099831
 31
0.0
  0
LINE
  5
164
100
AcDbEntity
100
AcDbLine
  8
halter
 62
256
370
-1
  6
ByLayer
 10
144.3727156321798191
 20
59.6525532227099831
 30
0.0
 11
144.5719965905248898
 21
59.7520160905499154
 31
0.0
  0
LINE
  5
165
100
AcDbEntity
100
AcDbLine
  8
halter
 62
256
370
-1
  6
ByLayer
 10
144.5719965905248898
 20
59.7520160905499154
 30
0.0
 11
144.8255936140649851
 21
59.8850194909049662
 31
0.0
  0
LINE
  5
166
100
AcDbEntity
100
AcDbLine
  8
halter
 62
256
370
-1
  6
ByLayer
 10
144.8255936140649851
 20
59.8850194909049662
 30
0.0
 11
145.1322099470248759
 21
60.0537864001948947
 31
0.0
  0
LINE
  5
167
100
AcDbEntity
100
AcDbLine
  8
halter
 62
256
370
-1
  6
ByLayer
 10
145.1322099470248759
 20
60.0537864001948947
 30
0.0
 11
145.49048143717485
 21
60.2605006318349439
 31
0.0
  0
LINE
  5
168
100
AcDbEntity
100
AcDbLine
  8
halter
 62
256
370
-1
  6
ByLayer
 10
145.49048143717485
 20
60.2605006318349439
 30
0.0
 11
145.8989775980101342
 21
60.507305022464962
 31
0.0
  0
LINE
  5
169
100
AcDbEntity
100
AcDbLine
  8
halter
 62
256
370
-1
  6
ByLayer
 10
145.8989775980101342
 20
60.507305022464962
 30
0.0
 11
146.3562027181798726
 21
60.7962996512548983
 31
0.0
  0
LINE
  5
16A
100
AcDbEntity
100
AcDbLine
  8
halter
 62
256
370
-1
  6
ByLayer
 10
146.3562027181798726
 20
60.7962996512548983
 30
0.0
 11
146.8605970121851385
 21
61.1295400822049473
 31
0.0
  0
LINE
  5
16B
100
AcDbEntity
100
AcDbLine
  8
halter
 62
256
370
-1
  6
ByLayer
 10
142.0493540441851223
 20
64.3007514781799756
 30
0.0
 11
142.0785145029599619
 21
64.3134810253949354
 31
0.0
  0
LINE
  5
16C
100
AcDbEntity
100
AcDbLine
  8
halter
 62
256
370
-1
  6
ByLayer
 10
142.0785145029599619
 20
64.3134810253949354
 30
0.0
 11
142.1666670611248264
 21
64.3500924765299516
 31
0.0
  0
LINE
  5
16D
100
AcDbEntity
100
AcDbLine
  8
halter
 62
256
370
-1
  6
ByLayer
 10
142.1666670611248264
 20
64.3500924765299516
 30
0.0
 11
142.3147645061100945
 21
64.4081976817649178
 31
0.0
  0
LINE
  5
16E
100
AcDbEntity
100
AcDbLine
  8
halter
 62
256
370
-1
  6
ByLayer
 10
142.3147645061100945
 20
64.4081976817649178
 30
0.0
 11
142.5236870197349219
 21
64.4853802297949414
 31
0.0
  0
LINE
  5
16F
100
AcDbEntity
100
AcDbLine
  8
halter
 62
256
370
-1
  6
ByLayer
 10
142.5236870197349219
 20
64.4853802297949414
 30
0.0
 11
142.7942414341798383
 21
64.5791974115399654
 31
0.0
  0
LINE
  5
170
100
AcDbEntity
100
AcDbLine
  8
halter
 62
256
370
-1
  6
ByLayer
 10
142.7942414341798383
 20
64.5791974115399654
 30
0.0
 11
143.1271605399300597
 21
64.6871821992899498
 31
0.0
  0
LINE
  5
171
100
AcDbEntity
100
AcDbLine
  8
halter
 62
256
370
-1
  6
ByLayer
 10
143.1271605399300597
 20
64.6871821992899498
 30
0.0
 11
143.52310244128509
 21
64.8068452466399094
 31
0.0
  0
LINE
  5
172
100
AcDbEntity
100
AcDbLine
  8
halter
 62
256
370
-1
  6
ByLayer
 10
143.52310244128509
 20
64.8068452466399094
 30
0.0
 11
143.9826499641599185
 21
64.9356769010249337
 31
0.0
  0
LINE
  5
173
100
AcDbEntity
100
AcDbLine
  8
halter
 62
256
370
-1
  6
ByLayer
 10
143.9826499641599185
 20
64.9356769010249337
 30
0.0
 11
144.5063101145999269
 21
65.0711492326349799
 31
0.0
  0
LINE
  5
174
100
AcDbEntity
100
AcDbLine
  8
halter
 62
256
370
-1
  6
ByLayer
 10
144.5063101145999269
 20
65.0711492326349799
 30
0.0
 11
145.0945135883251851
 21
65.2107180762449872
 31
0.0
  0
LINE
  5
175
100
AcDbEntity
100
AcDbLine
  8
halter
 62
256
370
-1
  6
ByLayer
 10
145.0945135883251851
 20
65.2107180762449872
 30
0.0
 11
145.0945135870649949
 21
65.2107180756149347
 31
0.0
  0
LINE
  5
176
100
AcDbEntity
100
AcDbLine
  8
halter
 62
256
370
-1
  6
ByLayer
 10
146.8605970109249199
 20
61.1295400815749517
 30
0.0
 11
145.0945135870649949
 21
65.2107180756149347
 31
0.0
  0
LINE
  5
177
100
AcDbEntity
100
AcDbLine
  8
halter
 62
256
370
-1
  6
ByLayer
 10
142.0493540441851223
 20
64.3007514781799756
 30
0.0
 11
140.0902465302900737
 21
68.4640668678749194
 31
0.0
  0
LINE
  5
178
100
AcDbEntity
100
AcDbLine
  8
halter
 62
256
370
-1
  6
ByLayer
 10
140.0902465302900737
 20
68.4640668678749194
 30
0.0
 11
140.1186423911400141
 21
68.4784212685649578
 31
0.0
  0
LINE
  5
179
100
AcDbEntity
100
AcDbLine
  8
halter
 62
256
370
-1
  6
ByLayer
 10
140.1186423911400141
 20
68.4784212685649578
 30
0.0
 11
140.2030425543300396
 21
68.5230069648599169
 31
0.0
  0
LINE
  5
17A
100
AcDbEntity
100
AcDbLine
  8
halter
 62
256
370
-1
  6
ByLayer
 10
140.2030425543300396
 20
68.5230069648599169
 30
0.0
 11
140.342214248774809
 21
68.6000803556249679
 31
0.0
  0
LINE
  5
17B
100
AcDbEntity
100
AcDbLine
  8
halter
 62
256
370
-1
  6
ByLayer
 10
140.342214248774809
 20
68.6000803556249679
 30
0.0
 11
140.5348566463798932
 21
68.7118599112049111
 31
0.0
  0
LINE
  5
17C
100
AcDbEntity
100
AcDbLine
  8
halter
 62
256
370
-1
  6
ByLayer
 10
140.5348566463798932
 20
68.7118599112049111
 30
0.0
 11
140.7796019015401896
 21
68.8605243483149536
 31
0.0
  0
LINE
  5
17D
100
AcDbEntity
100
AcDbLine
  8
halter
 62
256
370
-1
  6
ByLayer
 10
140.7796019015401896
 20
68.8605243483149536
 30
0.0
 11
141.0750162353700148
 21
69.0482108339099341
 31
0.0
  0
LINE
  5
17E
100
AcDbEntity
100
AcDbLine
  8
halter
 62
256
370
-1
  6
ByLayer
 10
141.0750162353700148
 20
69.0482108339099341
 30
0.0
 11
141.4196010643498767
 21
69.2770132151999434
 31
0.0
  0
LINE
  5
17F
100
AcDbEntity
100
AcDbLine
  8
halter
 62
256
370
-1
  6
ByLayer
 10
141.4196010643498767
 20
69.2770132151999434
 30
0.0
 11
141.8117941755901086
 21
69.5489802799049528
 31
0.0
  0
LINE
  5
180
100
AcDbEntity
100
AcDbLine
  8
halter
 62
256
370
-1
  6
ByLayer
 10
141.8117941755901086
 20
69.5489802799049528
 30
0.0
 11
142.2499709433599548
 21
69.8661140464349444
 31
0.0
  0
LINE
  5
181
100
AcDbEntity
100
AcDbLine
  8
halter
 62
256
370
-1
  6
ByLayer
 10
142.2499709433599548
 20
69.8661140464349444
 30
0.0
 11
142.7324455906648382
 21
70.2303680833649651
 31
0.0
  0
LINE
  5
182
100
AcDbEntity
100
AcDbLine
  8
halter
 62
256
370
-1
  6
ByLayer
 10
137.7315745006949328
 20
73.0932213724649387
 30
0.0
 11
137.7598781232451586
 21
73.1077568011349541
 31
0.0
  0
LINE
  5
183
100
AcDbEntity
100
AcDbLine
  8
halter
 62
256
370
-1
  6
ByLayer
 10
137.7598781232451586
 20
73.1077568011349541
 30
0.0
 11
137.8455578803800563
 21
73.1498311529999654
 31
0.0
  0
LINE
  5
184
100
AcDbEntity
100
AcDbLine
  8
halter
 62
256
370
-1
  6
ByLayer
 10
137.8455578803800563
 20
73.1498311529999654
 30
0.0
 11
137.9897146328399913
 21
73.2171208163849485
 31
0.0
  0
LINE
  5
185
100
AcDbEntity
100
AcDbLine
  8
halter
 62
256
370
-1
  6
ByLayer
 10
137.9897146328399913
 20
73.2171208163849485
 30
0.0
 11
138.193378553160187
 21
73.3072694155199684
 31
0.0
  0
LINE
  5
186
100
AcDbEntity
100
AcDbLine
  8
halter
 62
256
370
-1
  6
ByLayer
 10
138.193378553160187
 20
73.3072694155199684
 30
0.0
 11
138.4575082606801288
 21
73.4178897225899618
 31
0.0
  0
LINE
  5
187
100
AcDbEntity
100
AcDbLine
  8
halter
 62
256
370
-1
  6
ByLayer
 10
138.4575082606801288
 20
73.4178897225899618
 30
0.0
 11
138.7829900056950123
 21
73.5465655908899407
 31
0.0
  0
LINE
  5
188
100
AcDbEntity
100
AcDbLine
  8
halter
 62
256
370
-1
  6
ByLayer
 10
138.7829900056950123
 20
73.5465655908899407
 30
0.0
 11
139.1706369011699849
 21
73.6908539081399425
 31
0.0
  0
LINE
  5
189
100
AcDbEntity
100
AcDbLine
  8
halter
 62
256
370
-1
  6
ByLayer
 10
139.1706369011699849
 20
73.6908539081399425
 30
0.0
 11
139.621188205484998
 21
73.8482865702749507
 31
0.0
  0
LINE
  5
18A
100
AcDbEntity
100
AcDbLine
  8
halter
 62
256
370
-1
  6
ByLayer
 10
139.621188205484998
 20
73.8482865702749507
 30
0.0
 11
140.1353086540051436
 21
74.0163724709849191
 31
0.0
  0
LINE
  5
18B
100
AcDbEntity
100
AcDbLine
  8
halter
 62
256
370
-1
  6
ByLayer
 10
140.1353086540051436
 20
74.0163724709849191
 30
0.0
 11
140.7135878426250031
 21
74.1925995092099697
 31
0.0
  0
LINE
  5
18C
100
AcDbEntity
100
AcDbLine
  8
halter
 62
256
370
-1
  6
ByLayer
 10
140.7135878426250031
 20
74.1925995092099697
 30
0.0
 11
140.713587841365154
 21
74.1925995085800025
 31
0.0
  0
LINE
  5
18D
100
AcDbEntity
100
AcDbLine
  8
halter
 62
256
370
-1
  6
ByLayer
 10
142.7324455894049891
 20
70.2303680827349552
 30
0.0
 11
140.713587841365154
 21
74.1925995085800025
 31
0.0
  0
LINE
  5
18E
100
AcDbEntity
100
AcDbLine
  8
halter
 62
256
370
-1
  6
ByLayer
 10
137.7315745006949328
 20
73.0932213724649387
 30
0.0
 11
135.51491610153019
 21
77.1253080314849342
 31
0.0
  0
LINE
  5
18F
100
AcDbEntity
100
AcDbLine
  8
halter
 62
256
370
-1
  6
ByLayer
 10
135.51491610153019
 20
77.1253080314849342
 30
0.0
 11
135.5423546093401512
 21
77.1414170980949621
 31
0.0
  0
LINE
  5
190
100
AcDbEntity
100
AcDbLine
  8
halter
 62
256
370
-1
  6
ByLayer
 10
135.5423546093401512
 20
77.1414170980949621
 30
0.0
 11
135.6237886692148606
 21
77.1912143446499641
 31
0.0
  0
LINE
  5
191
100
AcDbEntity
100
AcDbLine
  8
halter
 62
256
370
-1
  6
ByLayer
 10
135.6237886692148606
 20
77.1912143446499641
 30
0.0
 11
135.757846261800097
 21
77.2768743119099497
 31
0.0
  0
LINE
  5
192
100
AcDbEntity
100
AcDbLine
  8
halter
 62
256
370
-1
  6
ByLayer
 10
135.757846261800097
 20
77.2768743119099497
 30
0.0
 11
135.9430898272649699
 21
77.4005294122199672
 31
0.0
  0
LINE
  5
193
100
AcDbEntity
100
AcDbLine
  8
halter
 62
256
370
-1
  6
ByLayer
 10
135.9430898272649699
 20
77.4005294122199672
 30
0.0
 11
136.1780174163151003
 21
77.5642681759049424
 31
0.0
  0
LINE
  5
194
100
AcDbEntity
100
AcDbLine
  8
halter
 62
256
370
-1
  6
ByLayer
 10
136.1780174163151003
 20
77.5642681759049424
 30
0.0
 11
136.461063885614891
 21
77.7701335244399274
 31
0.0
  0
LINE
  5
195
100
AcDbEntity
100
AcDbLine
  8
halter
 62
256
370
-1
  6
ByLayer
 10
136.461063885614891
 20
77.7701335244399274
 30
0.0
 11
136.7906021347948808
 21
78.0201210766949487
 31
0.0
  0
LINE
  5
196
100
AcDbEntity
100
AcDbLine
  8
halter
 62
256
370
-1
  6
ByLayer
 10
136.7906021347948808
 20
78.0201210766949487
 30
0.0
 11
137.1649443891298858
 21
78.3161774860498952
 31
0.0
  0
LINE
  5
197
100
AcDbEntity
100
AcDbLine
  8
halter
 62
256
370
-1
  6
ByLayer
 10
137.1649443891298858
 20
78.3161774860498952
 30
0.0
 11
137.5823435212798245
 21
78.6601988083799739
 31
0.0
  0
LINE
  5
198
100
AcDbEntity
100
AcDbLine
  8
halter
 62
256
370
-1
  6
ByLayer
 10
137.5823435212798245
 20
78.6601988083799739
 30
0.0
 11
138.0409944149248247
 21
79.0540289068949136
 31
0.0
  0
LINE
  5
199
100
AcDbEntity
100
AcDbLine
  8
halter
 62
256
370
-1
  6
ByLayer
 10
132.8702313559950312
 20
81.5972257151099427
 30
0.0
 11
132.8975664408001194
 21
81.6135096605849526
 31
0.0
  0
LINE
  5
19A
100
AcDbEntity
100
AcDbLine
  8
halter
 62
256
370
-1
  6
ByLayer
 10
132.8975664408001194
 20
81.6135096605849526
 30
0.0
 11
132.9804352579499778
 21
81.6608808647099664
 31
0.0
  0
LINE
  5
19B
100
AcDbEntity
100
AcDbLine
  8
halter
 62
256
370
-1
  6
ByLayer
 10
132.9804352579499778
 20
81.6608808647099664
 30
0.0
 11
133.1200823970150964
 21
81.7370894245499215
 31
0.0
  0
LINE
  5
19C
100
AcDbEntity
100
AcDbLine
  8
halter
 62
256
370
-1
  6
ByLayer
 10
133.1200823970150964
 20
81.7370894245499215
 30
0.0
 11
133.3176839558549034
 21
81.8398482996149426
 31
0.0
  0
LINE
  5
19D
100
AcDbEntity
100
AcDbLine
  8
halter
 62
256
370
-1
  6
ByLayer
 10
133.3176839558549034
 20
81.8398482996149426
 30
0.0
 11
133.57434655750518
 21
81.9668351643749418
 31
0.0
  0
LINE
  5
19E
100
AcDbEntity
100
AcDbLine
  8
halter
 62
256
370
-1
  6
ByLayer
 10
133.57434655750518
 20
81.9668351643749418
 30
0.0
 11
133.8911064139950042
 21
82.1156942878649403
 31
0.0
  0
LINE
  5
19F
100
AcDbEntity
100
AcDbLine
  8
halter
 62
256
370
-1
  6
ByLayer
 10
133.8911064139950042
 20
82.1156942878649403
 30
0.0
 11
134.268928438365009
 21
82.2840384353399372
 31
0.0
  0
LINE
  5
1A0
100
AcDbEntity
100
AcDbLine
  8
halter
 62
256
370
-1
  6
ByLayer
 10
134.268928438365009
 20
82.2840384353399372
 30
0.0
 11
134.7087054039298266
 21
82.4694507904049487
 31
0.0
  0
LINE
  5
1A1
100
AcDbEntity
100
AcDbLine
  8
halter
 62
256
370
-1
  6
ByLayer
 10
134.7087054039298266
 20
82.4694507904049487
 30
0.0
 11
135.2112571520551398
 21
82.6694869023449286
 31
0.0
  0
LINE
  5
1A2
100
AcDbEntity
100
AcDbLine
  8
halter
 62
256
370
-1
  6
ByLayer
 10
135.2112571520551398
 20
82.6694869023449286
 30
0.0
 11
135.7773298515901672
 21
82.8816766469999493
 31
0.0
  0
LINE
  5
1A3
100
AcDbEntity
100
AcDbLine
  8
halter
 62
256
370
-1
  6
ByLayer
 10
135.7773298515901672
 20
82.8816766469999493
 30
0.0
 11
135.777329850329977
 21
82.8816766463699395
 31
0.0
  0
LINE
  5
1A4
100
AcDbEntity
100
AcDbLine
  8
halter
 62
256
370
-1
  6
ByLayer
 10
138.0409944136649756
 20
79.054028906264918
 30
0.0
 11
135.777329850329977
 21
82.8816766463699395
 31
0.0
  0
LINE
  5
1A5
100
AcDbEntity
100
AcDbLine
  8
halter
 62
256
370
-1
  6
ByLayer
 10
132.8702313559950312
 20
81.5972257151099427
 30
0.0
 11
130.4047702099799437
 21
85.4821708397999913
 31
0.0
  0
LINE
  5
1A6
100
AcDbEntity
100
AcDbLine
  8
halter
 62
256
370
-1
  6
ByLayer
 10
130.4047702099799437
 20
85.4821708397999913
 30
0.0
 11
130.4311430775150029
 21
85.4999709971399824
 31
0.0
  0
LINE
  5
1A7
100
AcDbEntity
100
AcDbLine
  8
halter
 62
256
370
-1
  6
ByLayer
 10
130.4311430775150029
 20
85.4999709971399824
 30
0.0
 11
130.5092896509151785
 21
85.5547832670299329
 31
0.0
  0
LINE
  5
1A8
100
AcDbEntity
100
AcDbLine
  8
halter
 62
256
370
-1
  6
ByLayer
 10
130.5092896509151785
 20
85.5547832670299329
 30
0.0
 11
130.637704077405175
 21
85.6486917496349491
 31
0.0
  0
LINE
  5
1A9
100
AcDbEntity
100
AcDbLine
  8
halter
 62
256
370
-1
  6
ByLayer
 10
130.637704077405175
 20
85.6486917496349491
 30
0.0
 11
130.8148177392000093
 21
85.7837343847049567
 31
0.0
  0
LINE
  5
1AA
100
AcDbEntity
100
AcDbLine
  8
halter
 62
256
370
-1
  6
ByLayer
 10
130.8148177392000093
 20
85.7837343847049567
 30
0.0
 11
131.0390005103549527
 21
85.9619012726249281
 31
0.0
  0
LINE
  5
1AB
100
AcDbEntity
100
AcDbLine
  8
halter
 62
256
370
-1
  6
ByLayer
 10
131.0390005103549527
 20
85.9619012726249281
 30
0.0
 11
131.3085620596048386
 21
86.1851330275949294
 31
0.0
  0
LINE
  5
1AC
100
AcDbEntity
100
AcDbLine
  8
halter
 62
256
370
-1
  6
ByLayer
 10
131.3085620596048386
 20
86.1851330275949294
 30
0.0
 11
131.6217531919501198
 21
86.4553191645149184
 31
0.0
  0
LINE
  5
1AD
100
AcDbEntity
100
AcDbLine
  8
halter
 62
256
370
-1
  6
ByLayer
 10
131.6217531919501198
 20
86.4553191645149184
 30
0.0
 11
131.9767672318199061
 21
86.7742965186299529
 31
0.0
  0
LINE
  5
1AE
100
AcDbEntity
100
AcDbLine
  8
halter
 62
256
370
-1
  6
ByLayer
 10
131.9767672318199061
 20
86.7742965186299529
 30
0.0
 11
132.3717414446699081
 21
87.1438477020299587
 31
0.0
  0
LINE
  5
1AF
100
AcDbEntity
100
AcDbLine
  8
halter
 62
256
370
-1
  6
ByLayer
 10
132.3717414446699081
 20
87.1438477020299587
 30
0.0
 11
132.8047584988949552
 21
87.5656995947999377
 31
0.0
  0
LINE
  5
1B0
100
AcDbEntity
100
AcDbLine
  8
halter
 62
256
370
-1
  6
ByLayer
 10
127.4845101109648624
 20
89.7792030859499732
 30
0.0
 11
127.510768778714862
 21
89.7971712831899538
 31
0.0
  0
LINE
  5
1B1
100
AcDbEntity
100
AcDbLine
  8
halter
 62
256
370
-1
  6
ByLayer
 10
127.510768778714862
 20
89.7971712831899538
 30
0.0
 11
127.5904996109099159
 21
89.8496523870749257
 31
0.0
  0
LINE
  5
1B2
100
AcDbEntity
100
AcDbLine
  8
halter
 62
256
370
-1
  6
ByLayer
 10
127.5904996109099159
 20
89.8496523870749257
 30
0.0
 11
127.7250860132098609
 21
89.9344790832599443
 31
0.0
  0
LINE
  5
1B3
100
AcDbEntity
100
AcDbLine
  8
halter
 62
256
370
-1
  6
ByLayer
 10
127.7250860132098609
 20
89.9344790832599443
 30
0.0
 11
127.9158453672751108
 21
90.0494426915999497
 31
0.0
  0
LINE
  5
1B4
100
AcDbEntity
100
AcDbLine
  8
halter
 62
256
370
-1
  6
ByLayer
 10
127.9158453672751108
 20
90.0494426915999497
 30
0.0
 11
128.1640279326749408
 21
90.1922949547199551
 31
0.0
  0
LINE
  5
1B5
100
AcDbEntity
100
AcDbLine
  8
halter
 62
256
370
-1
  6
ByLayer
 10
128.1640279326749408
 20
90.1922949547199551
 30
0.0
 11
128.4708157941600462
 21
90.3607498549349373
 31
0.0
  0
LINE
  5
1B6
100
AcDbEntity
100
AcDbLine
  8
halter
 62
256
370
-1
  6
ByLayer
 10
128.4708157941600462
 20
90.3607498549349373
 30
0.0
 11
128.8373218564948672
 21
90.5524854547949616
 31
0.0
  0
LINE
  5
1B7
100
AcDbEntity
100
AcDbLine
  8
halter
 62
256
370
-1
  6
ByLayer
 10
128.8373218564948672
 20
90.5524854547949616
 30
0.0
 11
129.2645888846552111
 21
90.7651457653499563
 31
0.0
  0
LINE
  5
1B8
100
AcDbEntity
100
AcDbLine
  8
halter
 62
256
370
-1
  6
ByLayer
 10
129.2645888846552111
 20
90.7651457653499563
 30
0.0
 11
129.7535885903250232
 21
90.9963426367799713
 31
0.0
  0
LINE
  5
1B9
100
AcDbEntity
100
AcDbLine
  8
halter
 62
256
370
-1
  6
ByLayer
 10
129.7535885903250232
 20
90.9963426367799713
 30
0.0
 11
130.3052207703748593
 21
91.2436576723349475
 31
0.0
  0
LINE
  5
1BA
100
AcDbEntity
100
AcDbLine
  8
halter
 62
256
370
-1
  6
ByLayer
 10
130.3052207703748593
 20
91.2436576723349475
 30
0.0
 11
130.3052207691150102
 21
91.2436576717049235
 31
0.0
  0
LINE
  5
1BB
100
AcDbEntity
100
AcDbLine
  8
halter
 62
256
370
-1
  6
ByLayer
 10
132.8047584976351061
 20
87.5656995938549301
 30
0.0
 11
130.3052207691150102
 21
91.2436576717049235
 31
0.0
  0
LINE
  5
1BC
100
AcDbEntity
100
AcDbLine
  8
halter
 62
256
370
-1
  6
ByLayer
 10
127.4845101109648624
 20
89.7792030859499732
 30
0.0
 11
124.7799762666449652
 21
93.5016745726349683
 31
0.0
  0
LINE
  5
1BD
100
AcDbEntity
100
AcDbLine
  8
halter
 62
256
370
-1
  6
ByLayer
 10
124.7799762666449652
 20
93.5016745726349683
 30
0.0
 11
124.8051794122349065
 21
93.5210955716099477
 31
0.0
  0
LINE
  5
1BE
100
AcDbEntity
100
AcDbLine
  8
halter
 62
256
370
-1
  6
ByLayer
 10
124.8051794122349065
 20
93.5210955716099477
 30
0.0
 11
124.8797300902199083
 21
93.5807065458299405
 31
0.0
  0
LINE
  5
1BF
100
AcDbEntity
100
AcDbLine
  8
halter
 62
256
370
-1
  6
ByLayer
 10
124.8797300902199083
 20
93.5807065458299405
 30
0.0
 11
125.0019945578248866
 21
93.6824929302149485
 31
0.0
  0
LINE
  5
1C0
100
AcDbEntity
100
AcDbLine
  8
halter
 62
256
370
-1
  6
ByLayer
 10
125.0019945578248866
 20
93.6824929302149485
 30
0.0
 11
125.1702793287449822
 21
93.8283901480799329
 31
0.0
  0
LINE
  5
1C1
100
AcDbEntity
100
AcDbLine
  8
halter
 62
256
370
-1
  6
ByLayer
 10
125.1702793287449822
 20
93.8283901480799329
 30
0.0
 11
125.3828325352048694
 21
94.0202820172349476
 31
0.0
  0
LINE
  5
1C2
100
AcDbEntity
100
AcDbLine
  8
halter
 62
256
370
-1
  6
ByLayer
 10
125.3828325352048694
 20
94.0202820172349476
 30
0.0
 11
125.6378453284499273
 21
94.2599991850649417
 31
0.0
  0
LINE
  5
1C3
100
AcDbEntity
100
AcDbLine
  8
halter
 62
256
370
-1
  6
ByLayer
 10
125.6378453284499273
 20
94.2599991850649417
 30
0.0
 11
125.9334533217600836
 21
94.5493176055049389
 31
0.0
  0
LINE
  5
1C4
100
AcDbEntity
100
AcDbLine
  8
halter
 62
256
370
-1
  6
ByLayer
 10
125.9334533217600836
 20
94.5493176055049389
 30
0.0
 11
126.2677380687449613
 21
94.8899570465699611
 31
0.0
  0
LINE
  5
1C5
100
AcDbEntity
100
AcDbLine
  8
halter
 62
256
370
-1
  6
ByLayer
 10
126.2677380687449613
 20
94.8899570465699611
 30
0.0
 11
126.6387285791249866
 21
95.2835796410399496
 31
0.0
  0
LINE
  5
1C6
100
AcDbEntity
100
AcDbLine
  8
halter
 62
256
370
-1
  6
ByLayer
 10
126.6387285791249866
 20
95.2835796410399496
 30
0.0
 11
127.0444028738849624
 21
95.7317884711649185
 31
0.0
  0
LINE
  5
1C7
100
AcDbEntity
100
AcDbLine
  8
halter
 62
256
370
-1
  6
ByLayer
 10
121.620744366344951
 20
97.6264444949849235
 30
0.0
 11
121.697022552209944
 21
97.6838283798299472
 31
0.0
  0
LINE
  5
1C8
100
AcDbEntity
100
AcDbLine
  8
halter
 62
256
370
-1
  6
ByLayer
 10
121.697022552209944
 20
97.6838283798299472
 30
0.0
 11
121.8260170666349751
 21
97.7769384401249368
 31
0.0
  0
LINE
  5
1C9
100
AcDbEntity
100
AcDbLine
  8
halter
 62
256
370
-1
  6
ByLayer
 10
121.8260170666349751
 20
97.7769384401249368
 30
0.0
 11
122.0091813760048609
 21
97.9036530727499752
 31
0.0
  0
LINE
  5
1CA
100
AcDbEntity
100
AcDbLine
  8
halter
 62
256
370
-1
  6
ByLayer
 10
122.0091813760048609
 20
97.9036530727499752
 30
0.0
 11
122.247904441950169
 21
98.0618069620349218
 31
0.0
  0
LINE
  5
1CB
100
AcDbEntity
100
AcDbLine
  8
halter
 62
256
370
-1
  6
ByLayer
 10
122.247904441950169
 20
98.0618069620349218
 30
0.0
 11
122.5435095571050255
 21
98.2491928242299508
 31
0.0
  0
LINE
  5
1CC
100
AcDbEntity
100
AcDbLine
  8
halter
 62
256
370
-1
  6
ByLayer
 10
122.5435095571050255
 20
98.2491928242299508
 30
0.0
 11
122.8972532255998686
 21
98.4635631834749603
 31
0.0
  0
LINE
  5
1CD
100
AcDbEntity
100
AcDbLine
  8
halter
 62
256
370
-1
  6
ByLayer
 10
122.8972532255998686
 20
98.4635631834749603
 30
0.0
 11
123.3103240882799128
 21
98.7026321761199199
 31
0.0
  0
LINE
  5
1CE
100
AcDbEntity
100
AcDbLine
  8
halter
 62
256
370
-1
  6
ByLayer
 10
123.3103240882799128
 20
98.7026321761199199
 30
0.0
 11
123.7838418932848867
 21
98.9640773789849533
 31
0.0
  0
LINE
  5
1CF
100
AcDbEntity
100
AcDbLine
  8
halter
 62
256
370
-1
  6
ByLayer
 10
123.7838418932848867
 20
98.9640773789849533
 30
0.0
 11
124.3188565135649384
 21
99.2455416662849643
 31
0.0
  0
LINE
  5
1D0
100
AcDbEntity
100
AcDbLine
  8
halter
 62
256
370
-1
  6
ByLayer
 10
124.3188565135649384
 20
99.2455416662849643
 30
0.0
 11
124.3188565123050893
 21
99.2455416653399567
 31
0.0
  0
LINE
  5
1D1
100
AcDbEntity
100
AcDbLine
  8
halter
 62
256
370
-1
  6
ByLayer
 10
127.0444028726251133
 20
95.7317884702199677
 30
0.0
 11
124.3188565123050893
 21
99.2455416653399567
 31
0.0
  0
LINE
  5
1D2
100
AcDbEntity
100
AcDbLine
  8
halter
 62
256
370
-1
  6
ByLayer
 10
121.620744366344951
 20
-97.6264444949850656
 30
0.0
 11
121.697022552209944
 21
-97.6838283798300893
 31
0.0
  0
LINE
  5
1D3
100
AcDbEntity
100
AcDbLine
  8
halter
 62
256
370
-1
  6
ByLayer
 10
121.697022552209944
 20
-97.6838283798300893
 30
0.0
 11
121.8260170666349751
 21
-97.7769384401250647
 31
0.0
  0
LINE
  5
1D4
100
AcDbEntity
100
AcDbLine
  8
halter
 62
256
370
-1
  6
ByLayer
 10
121.8260170666349751
 20
-97.7769384401250647
 30
0.0
 11
122.0091813760048609
 21
-97.9036530727501173
 31
0.0
  0
LINE
  5
1D5
100
AcDbEntity
100
AcDbLine
  8
halter
 62
256
370
-1
  6
ByLayer
 10
122.0091813760048609
 20
-97.9036530727501173
 30
0.0
 11
122.2479044419497995
 21
-98.0618069620350781
 31
0.0
  0
LINE
  5
1D6
100
AcDbEntity
100
AcDbLine
  8
halter
 62
256
370
-1
  6
ByLayer
 10
122.2479044419497995
 20
-98.0618069620350781
 30
0.0
 11
122.5435095571050255
 21
-98.2491928242300645
 31
0.0
  0
LINE
  5
1D7
100
AcDbEntity
100
AcDbLine
  8
halter
 62
256
370
-1
  6
ByLayer
 10
122.5435095571050255
 20
-98.2491928242300645
 30
0.0
 11
122.8972532255998686
 21
-98.4635631834751024
 31
0.0
  0
LINE
  5
1D8
100
AcDbEntity
100
AcDbLine
  8
halter
 62
256
370
-1
  6
ByLayer
 10
122.8972532255998686
 20
-98.4635631834751024
 30
0.0
 11
123.3103240882799128
 21
-98.702632176120062
 31
0.0
  0
LINE
  5
1D9
100
AcDbEntity
100
AcDbLine
  8
halter
 62
256
370
-1
  6
ByLayer
 10
123.3103240882799128
 20
-98.702632176120062
 30
0.0
 11
123.7838418932848867
 21
-98.9640773789851238
 31
0.0
  0
LINE
  5
1DA
100
AcDbEntity
100
AcDbLine
  8
halter
 62
256
370
-1
  6
ByLayer
 10
123.7838418932848867
 20
-98.9640773789851238
 30
0.0
 11
124.3188565135649384
 21
-99.2455416662850922
 31
0.0
  0
LINE
  5
1DB
100
AcDbEntity
100
AcDbLine
  8
halter
 62
256
370
-1
  6
ByLayer
 10
124.7799762666449652
 20
-93.5016745726350962
 30
0.0
 11
124.8051794122349065
 21
-93.521095571610104
 31
0.0
  0
LINE
  5
1DC
100
AcDbEntity
100
AcDbLine
  8
halter
 62
256
370
-1
  6
ByLayer
 10
124.8051794122349065
 20
-93.521095571610104
 30
0.0
 11
124.8797300902199083
 21
-93.5807065458300826
 31
0.0
  0
LINE
  5
1DD
100
AcDbEntity
100
AcDbLine
  8
halter
 62
256
370
-1
  6
ByLayer
 10
124.8797300902199083
 20
-93.5807065458300826
 30
0.0
 11
125.0019945578248866
 21
-93.682492930215048
 31
0.0
  0
LINE
  5
1DE
100
AcDbEntity
100
AcDbLine
  8
halter
 62
256
370
-1
  6
ByLayer
 10
125.0019945578248866
 20
-93.682492930215048
 30
0.0
 11
125.1702793287449822
 21
-93.8283901480800324
 31
0.0
  0
LINE
  5
1DF
100
AcDbEntity
100
AcDbLine
  8
halter
 62
256
370
-1
  6
ByLayer
 10
125.1702793287449822
 20
-93.8283901480800324
 30
0.0
 11
125.3828325352048694
 21
-94.0202820172350755
 31
0.0
  0
LINE
  5
1E0
100
AcDbEntity
100
AcDbLine
  8
halter
 62
256
370
-1
  6
ByLayer
 10
125.3828325352048694
 20
-94.0202820172350755
 30
0.0
 11
125.6378453284499273
 21
-94.2599991850651122
 31
0.0
  0
LINE
  5
1E1
100
AcDbEntity
100
AcDbLine
  8
halter
 62
256
370
-1
  6
ByLayer
 10
125.6378453284499273
 20
-94.2599991850651122
 30
0.0
 11
125.9334533217600836
 21
-94.5493176055050384
 31
0.0
  0
LINE
  5
1E2
100
AcDbEntity
100
AcDbLine
  8
halter
 62
256
370
-1
  6
ByLayer
 10
125.9334533217600836
 20
-94.5493176055050384
 30
0.0
 11
126.2677380687449613
 21
-94.8899570465701316
 31
0.0
  0
LINE
  5
1E3
100
AcDbEntity
100
AcDbLine
  8
halter
 62
256
370
-1
  6
ByLayer
 10
126.2677380687449613
 20
-94.8899570465701316
 30
0.0
 11
126.6387285791249866
 21
-95.2835796410400491
 31
0.0
  0
LINE
  5
1E4
100
AcDbEntity
100
AcDbLine
  8
halter
 62
256
370
-1
  6
ByLayer
 10
126.6387285791249866
 20
-95.2835796410400491
 30
0.0
 11
127.0444028738849624
 21
-95.7317884711650748
 31
0.0
  0
LINE
  5
1E5
100
AcDbEntity
100
AcDbLine
  8
halter
 62
256
370
-1
  6
ByLayer
 10
127.0444028738849624
 20
-95.7317884711650748
 30
0.0
 11
127.0444028726251133
 21
-95.7317884702200672
 31
0.0
  0
LINE
  5
1E6
100
AcDbEntity
100
AcDbLine
  8
halter
 62
256
370
-1
  6
ByLayer
 10
124.3188565123050893
 20
-99.245541665340113
 30
0.0
 11
127.0444028726251133
 21
-95.7317884702200672
 31
0.0
  0
LINE
  5
1E7
100
AcDbEntity
100
AcDbLine
  8
halter
 62
256
370
-1
  6
ByLayer
 10
124.7799762666449652
 20
-93.5016745726350962
 30
0.0
 11
127.4845101109648624
 21
-89.7792030859501722
 31
0.0
  0
LINE
  5
1E8
100
AcDbEntity
100
AcDbLine
  8
halter
 62
256
370
-1
  6
ByLayer
 10
127.4845101109648624
 20
-89.7792030859501722
 30
0.0
 11
127.510768778714862
 21
-89.7971712831901101
 31
0.0
  0
LINE
  5
1E9
100
AcDbEntity
100
AcDbLine
  8
halter
 62
256
370
-1
  6
ByLayer
 10
127.510768778714862
 20
-89.7971712831901101
 30
0.0
 11
127.5904996109099159
 21
-89.8496523870750821
 31
0.0
  0
LINE
  5
1EA
100
AcDbEntity
100
AcDbLine
  8
halter
 62
256
370
-1
  6
ByLayer
 10
127.5904996109099159
 20
-89.8496523870750821
 30
0.0
 11
127.7250860132098609
 21
-89.9344790832601007
 31
0.0
  0
LINE
  5
1EB
100
AcDbEntity
100
AcDbLine
  8
halter
 62
256
370
-1
  6
ByLayer
 10
127.7250860132098609
 20
-89.9344790832601007
 30
0.0
 11
127.9158453672751108
 21
-90.0494426916001203
 31
0.0
  0
LINE
  5
1EC
100
AcDbEntity
100
AcDbLine
  8
halter
 62
256
370
-1
  6
ByLayer
 10
127.9158453672751108
 20
-90.0494426916001203
 30
0.0
 11
128.1640279326749408
 21
-90.1922949547201398
 31
0.0
  0
LINE
  5
1ED
100
AcDbEntity
100
AcDbLine
  8
halter
 62
256
370
-1
  6
ByLayer
 10
128.1640279326749408
 20
-90.1922949547201398
 30
0.0
 11
128.4708157941600462
 21
-90.360749854935122
 31
0.0
  0
LINE
  5
1EE
100
AcDbEntity
100
AcDbLine
  8
halter
 62
256
370
-1
  6
ByLayer
 10
128.4708157941600462
 20
-90.360749854935122
 30
0.0
 11
128.8373218564948672
 21
-90.5524854547951179
 31
0.0
  0
LINE
  5
1EF
100
AcDbEntity
100
AcDbLine
  8
halter
 62
256
370
-1
  6
ByLayer
 10
128.8373218564948672
 20
-90.5524854547951179
 30
0.0
 11
129.2645888846552111
 21
-90.7651457653500842
 31
0.0
  0
LINE
  5
1F0
100
AcDbEntity
100
AcDbLine
  8
halter
 62
256
370
-1
  6
ByLayer
 10
129.2645888846552111
 20
-90.7651457653500842
 30
0.0
 11
129.7535885903250232
 21
-90.9963426367800423
 31
0.0
  0
LINE
  5
1F1
100
AcDbEntity
100
AcDbLine
  8
halter
 62
256
370
-1
  6
ByLayer
 10
129.7535885903250232
 20
-90.9963426367800423
 30
0.0
 11
130.3052207703748593
 21
-91.2436576723351465
 31
0.0
  0
LINE
  5
1F2
100
AcDbEntity
100
AcDbLine
  8
halter
 62
256
370
-1
  6
ByLayer
 10
130.4047702099799437
 20
-85.4821708398001192
 30
0.0
 11
130.4311430775150029
 21
-85.4999709971400961
 31
0.0
  0
LINE
  5
1F3
100
AcDbEntity
100
AcDbLine
  8
halter
 62
256
370
-1
  6
ByLayer
 10
130.4311430775150029
 20
-85.4999709971400961
 30
0.0
 11
130.509289650914809
 21
-85.5547832670301318
 31
0.0
  0
LINE
  5
1F4
100
AcDbEntity
100
AcDbLine
  8
halter
 62
256
370
-1
  6
ByLayer
 10
130.509289650914809
 20
-85.5547832670301318
 30
0.0
 11
130.637704077405175
 21
-85.6486917496350486
 31
0.0
  0
LINE
  5
1F5
100
AcDbEntity
100
AcDbLine
  8
halter
 62
256
370
-1
  6
ByLayer
 10
130.637704077405175
 20
-85.6486917496350486
 30
0.0
 11
130.8148177392000093
 21
-85.7837343847051272
 31
0.0
  0
LINE
  5
1F6
100
AcDbEntity
100
AcDbLine
  8
halter
 62
256
370
-1
  6
ByLayer
 10
130.8148177392000093
 20
-85.7837343847051272
 30
0.0
 11
131.0390005103549527
 21
-85.9619012726250276
 31
0.0
  0
LINE
  5
1F7
100
AcDbEntity
100
AcDbLine
  8
halter
 62
256
370
-1
  6
ByLayer
 10
131.0390005103549527
 20
-85.9619012726250276
 30
0.0
 11
131.3085620596048386
 21
-86.1851330275950858
 31
0.0
  0
LINE
  5
1F8
100
AcDbEntity
100
AcDbLine
  8
halter
 62
256
370
-1
  6
ByLayer
 10
131.3085620596048386
 20
-86.1851330275950858
 30
0.0
 11
131.6217531919501198
 21
-86.4553191645150463
 31
0.0
  0
LINE
  5
1F9
100
AcDbEntity
100
AcDbLine
  8
halter
 62
256
370
-1
  6
ByLayer
 10
131.6217531919501198
 20
-86.4553191645150463
 30
0.0
 11
131.9767672318199061
 21
-86.774296518630095
 31
0.0
  0
LINE
  5
1FA
100
AcDbEntity
100
AcDbLine
  8
halter
 62
256
370
-1
  6
ByLayer
 10
131.9767672318199061
 20
-86.774296518630095
 30
0.0
 11
132.3717414446699081
 21
-87.1438477020301292
 31
0.0
  0
LINE
  5
1FB
100
AcDbEntity
100
AcDbLine
  8
halter
 62
256
370
-1
  6
ByLayer
 10
132.3717414446699081
 20
-87.1438477020301292
 30
0.0
 11
132.8047584988949552
 21
-87.565699594800094
 31
0.0
  0
LINE
  5
1FC
100
AcDbEntity
100
AcDbLine
  8
halter
 62
256
370
-1
  6
ByLayer
 10
132.8047584988949552
 20
-87.565699594800094
 30
0.0
 11
132.8047584976351061
 21
-87.565699593855058
 31
0.0
  0
LINE
  5
1FD
100
AcDbEntity
100
AcDbLine
  8
halter
 62
256
370
-1
  6
ByLayer
 10
130.3052207691150102
 20
-91.2436576717050656
 30
0.0
 11
132.8047584976351061
 21
-87.565699593855058
 31
0.0
  0
LINE
  5
1FE
100
AcDbEntity
100
AcDbLine
  8
halter
 62
256
370
-1
  6
ByLayer
 10
130.4047702099799437
 20
-85.4821708398001192
 30
0.0
 11
132.8702313559950312
 21
-81.597225715110099
 31
0.0
  0
LINE
  5
1FF
100
AcDbEntity
100
AcDbLine
  8
halter
 62
256
370
-1
  6
ByLayer
 10
132.8702313559950312
 20
-81.597225715110099
 30
0.0
 11
132.8975664408001194
 21
-81.6135096605851516
 31
0.0
  0
LINE
  5
200
100
AcDbEntity
100
AcDbLine
  8
halter
 62
256
370
-1
  6
ByLayer
 10
132.8975664408001194
 20
-81.6135096605851516
 30
0.0
 11
132.9804352579499778
 21
-81.6608808647100801
 31
0.0
  0
LINE
  5
201
100
AcDbEntity
100
AcDbLine
  8
halter
 62
256
370
-1
  6
ByLayer
 10
132.9804352579499778
 20
-81.6608808647100801
 30
0.0
 11
133.1200823970150964
 21
-81.7370894245500637
 31
0.0
  0
LINE
  5
202
100
AcDbEntity
100
AcDbLine
  8
halter
 62
256
370
-1
  6
ByLayer
 10
133.1200823970150964
 20
-81.7370894245500637
 30
0.0
 11
133.3176839558549034
 21
-81.8398482996150847
 31
0.0
  0
LINE
  5
203
100
AcDbEntity
100
AcDbLine
  8
halter
 62
256
370
-1
  6
ByLayer
 10
133.3176839558549034
 20
-81.8398482996150847
 30
0.0
 11
133.5743465575048106
 21
-81.9668351643750981
 31
0.0
  0
LINE
  5
204
100
AcDbEntity
100
AcDbLine
  8
halter
 62
256
370
-1
  6
ByLayer
 10
133.5743465575048106
 20
-81.9668351643750981
 30
0.0
 11
133.8911064139950042
 21
-82.1156942878650256
 31
0.0
  0
LINE
  5
205
100
AcDbEntity
100
AcDbLine
  8
halter
 62
256
370
-1
  6
ByLayer
 10
133.8911064139950042
 20
-82.1156942878650256
 30
0.0
 11
134.268928438365009
 21
-82.2840384353400509
 31
0.0
  0
LINE
  5
206
100
AcDbEntity
100
AcDbLine
  8
halter
 62
256
370
-1
  6
ByLayer
 10
134.268928438365009
 20
-82.2840384353400509
 30
0.0
 11
134.7087054039298266
 21
-82.4694507904050909
 31
0.0
  0
LINE
  5
207
100
AcDbEntity
100
AcDbLine
  8
halter
 62
256
370
-1
  6
ByLayer
 10
134.7087054039298266
 20
-82.4694507904050909
 30
0.0
 11
135.2112571520551398
 21
-82.6694869023451275
 31
0.0
  0
LINE
  5
208
100
AcDbEntity
100
AcDbLine
  8
halter
 62
256
370
-1
  6
ByLayer
 10
135.2112571520551398
 20
-82.6694869023451275
 30
0.0
 11
135.7773298515901672
 21
-82.881676647000063
 31
0.0
  0
LINE
  5
209
100
AcDbEntity
100
AcDbLine
  8
halter
 62
256
370
-1
  6
ByLayer
 10
135.51491610153019
 20
-77.1253080314850763
 30
0.0
 11
135.5423546093401512
 21
-77.1414170980951326
 31
0.0
  0
LINE
  5
20A
100
AcDbEntity
100
AcDbLine
  8
halter
 62
256
370
-1
  6
ByLayer
 10
135.5423546093401512
 20
-77.1414170980951326
 30
0.0
 11
135.6237886692148606
 21
-77.1912143446501062
 31
0.0
  0
LINE
  5
20B
100
AcDbEntity
100
AcDbLine
  8
halter
 62
256
370
-1
  6
ByLayer
 10
135.6237886692148606
 20
-77.1912143446501062
 30
0.0
 11
135.757846261800097
 21
-77.2768743119100776
 31
0.0
  0
LINE
  5
20C
100
AcDbEntity
100
AcDbLine
  8
halter
 62
256
370
-1
  6
ByLayer
 10
135.757846261800097
 20
-77.2768743119100776
 30
0.0
 11
135.9430898272649699
 21
-77.4005294122201235
 31
0.0
  0
LINE
  5
20D
100
AcDbEntity
100
AcDbLine
  8
halter
 62
256
370
-1
  6
ByLayer
 10
135.9430898272649699
 20
-77.4005294122201235
 30
0.0
 11
136.1780174163151003
 21
-77.5642681759050419
 31
0.0
  0
LINE
  5
20E
100
AcDbEntity
100
AcDbLine
  8
halter
 62
256
370
-1
  6
ByLayer
 10
136.1780174163151003
 20
-77.5642681759050419
 30
0.0
 11
136.461063885614891
 21
-77.7701335244400838
 31
0.0
  0
LINE
  5
20F
100
AcDbEntity
100
AcDbLine
  8
halter
 62
256
370
-1
  6
ByLayer
 10
136.461063885614891
 20
-77.7701335244400838
 30
0.0
 11
136.7906021347948808
 21
-78.0201210766951476
 31
0.0
  0
LINE
  5
210
100
AcDbEntity
100
AcDbLine
  8
halter
 62
256
370
-1
  6
ByLayer
 10
136.7906021347948808
 20
-78.0201210766951476
 30
0.0
 11
137.1649443891298858
 21
-78.3161774860500088
 31
0.0
  0
LINE
  5
211
100
AcDbEntity
100
AcDbLine
  8
halter
 62
256
370
-1
  6
ByLayer
 10
137.1649443891298858
 20
-78.3161774860500088
 30
0.0
 11
137.5823435212798245
 21
-78.6601988083800876
 31
0.0
  0
LINE
  5
212
100
AcDbEntity
100
AcDbLine
  8
halter
 62
256
370
-1
  6
ByLayer
 10
137.5823435212798245
 20
-78.6601988083800876
 30
0.0
 11
138.0409944149248247
 21
-79.0540289068950983
 31
0.0
  0
LINE
  5
213
100
AcDbEntity
100
AcDbLine
  8
halter
 62
256
370
-1
  6
ByLayer
 10
135.777329850329977
 20
-82.8816766463700958
 30
0.0
 11
138.0409944136649756
 21
-79.0540289062650174
 31
0.0
  0
LINE
  5
214
100
AcDbEntity
100
AcDbLine
  8
halter
 62
256
370
-1
  6
ByLayer
 10
135.51491610153019
 20
-77.1253080314850763
 30
0.0
 11
137.7315745006949328
 21
-73.0932213724651376
 31
0.0
  0
LINE
  5
215
100
AcDbEntity
100
AcDbLine
  8
halter
 62
256
370
-1
  6
ByLayer
 10
137.7315745006949328
 20
-73.0932213724651376
 30
0.0
 11
137.7598781232451586
 21
-73.1077568011350678
 31
0.0
  0
LINE
  5
216
100
AcDbEntity
100
AcDbLine
  8
halter
 62
256
370
-1
  6
ByLayer
 10
137.7598781232451586
 20
-73.1077568011350678
 30
0.0
 11
137.8455578803800563
 21
-73.1498311530001644
 31
0.0
  0
LINE
  5
217
100
AcDbEntity
100
AcDbLine
  8
halter
 62
256
370
-1
  6
ByLayer
 10
137.8455578803800563
 20
-73.1498311530001644
 30
0.0
 11
137.9897146328399913
 21
-73.2171208163850622
 31
0.0
  0
LINE
  5
218
100
AcDbEntity
100
AcDbLine
  8
halter
 62
256
370
-1
  6
ByLayer
 10
137.9897146328399913
 20
-73.2171208163850622
 30
0.0
 11
138.1933785531598176
 21
-73.3072694155201674
 31
0.0
  0
LINE
  5
219
100
AcDbEntity
100
AcDbLine
  8
halter
 62
256
370
-1
  6
ByLayer
 10
138.1933785531598176
 20
-73.3072694155201674
 30
0.0
 11
138.4575082606801288
 21
-73.4178897225900755
 31
0.0
  0
LINE
  5
21A
100
AcDbEntity
100
AcDbLine
  8
halter
 62
256
370
-1
  6
ByLayer
 10
138.4575082606801288
 20
-73.4178897225900755
 30
0.0
 11
138.7829900056950123
 21
-73.5465655908901113
 31
0.0
  0
LINE
  5
21B
100
AcDbEntity
100
AcDbLine
  8
halter
 62
256
370
-1
  6
ByLayer
 10
138.7829900056950123
 20
-73.5465655908901113
 30
0.0
 11
139.1706369011699849
 21
-73.690853908140113
 31
0.0
  0
LINE
  5
21C
100
AcDbEntity
100
AcDbLine
  8
halter
 62
256
370
-1
  6
ByLayer
 10
139.1706369011699849
 20
-73.690853908140113
 30
0.0
 11
139.621188205484998
 21
-73.8482865702750928
 31
0.0
  0
LINE
  5
21D
100
AcDbEntity
100
AcDbLine
  8
halter
 62
256
370
-1
  6
ByLayer
 10
139.621188205484998
 20
-73.8482865702750928
 30
0.0
 11
140.1353086540051436
 21
-74.0163724709850186
 31
0.0
  0
LINE
  5
21E
100
AcDbEntity
100
AcDbLine
  8
halter
 62
256
370
-1
  6
ByLayer
 10
140.1353086540051436
 20
-74.0163724709850186
 30
0.0
 11
140.7135878426250031
 21
-74.1925995092100976
 31
0.0
  0
LINE
  5
21F
100
AcDbEntity
100
AcDbLine
  8
halter
 62
256
370
-1
  6
ByLayer
 10
140.0902465302900737
 20
-68.4640668678751183
 30
0.0
 11
140.1186423911400141
 21
-68.4784212685650715
 31
0.0
  0
LINE
  5
220
100
AcDbEntity
100
AcDbLine
  8
halter
 62
256
370
-1
  6
ByLayer
 10
140.1186423911400141
 20
-68.4784212685650715
 30
0.0
 11
140.2030425543300396
 21
-68.5230069648601301
 31
0.0
  0
LINE
  5
221
100
AcDbEntity
100
AcDbLine
  8
halter
 62
256
370
-1
  6
ByLayer
 10
140.2030425543300396
 20
-68.5230069648601301
 30
0.0
 11
140.342214248774809
 21
-68.6000803556251242
 31
0.0
  0
LINE
  5
222
100
AcDbEntity
100
AcDbLine
  8
halter
 62
256
370
-1
  6
ByLayer
 10
140.342214248774809
 20
-68.6000803556251242
 30
0.0
 11
140.5348566463798932
 21
-68.711859911205039
 31
0.0
  0
LINE
  5
223
100
AcDbEntity
100
AcDbLine
  8
halter
 62
256
370
-1
  6
ByLayer
 10
140.5348566463798932
 20
-68.711859911205039
 30
0.0
 11
140.7796019015398201
 21
-68.8605243483150957
 31
0.0
  0
LINE
  5
224
100
AcDbEntity
100
AcDbLine
  8
halter
 62
256
370
-1
  6
ByLayer
 10
140.7796019015398201
 20
-68.8605243483150957
 30
0.0
 11
141.0750162353700148
 21
-69.0482108339100336
 31
0.0
  0
LINE
  5
225
100
AcDbEntity
100
AcDbLine
  8
halter
 62
256
370
-1
  6
ByLayer
 10
141.0750162353700148
 20
-69.0482108339100336
 30
0.0
 11
141.4196010643498767
 21
-69.2770132152000997
 31
0.0
  0
LINE
  5
226
100
AcDbEntity
100
AcDbLine
  8
halter
 62
256
370
-1
  6
ByLayer
 10
141.4196010643498767
 20
-69.2770132152000997
 30
0.0
 11
141.8117941755901086
 21
-69.5489802799050665
 31
0.0
  0
LINE
  5
227
100
AcDbEntity
100
AcDbLine
  8
halter
 62
256
370
-1
  6
ByLayer
 10
141.8117941755901086
 20
-69.5489802799050665
 30
0.0
 11
142.2499709433599548
 21
-69.8661140464350439
 31
0.0
  0
LINE
  5
228
100
AcDbEntity
100
AcDbLine
  8
halter
 62
256
370
-1
  6
ByLayer
 10
142.2499709433599548
 20
-69.8661140464350439
 30
0.0
 11
142.7324455906648382
 21
-70.2303680833651214
 31
0.0
  0
LINE
  5
229
100
AcDbEntity
100
AcDbLine
  8
halter
 62
256
370
-1
  6
ByLayer
 10
140.7135878426250031
 20
-74.1925995092100976
 30
0.0
 11
140.7135878413648129
 21
-74.1925995085802015
 31
0.0
  0
LINE
  5
22A
100
AcDbEntity
100
AcDbLine
  8
halter
 62
256
370
-1
  6
ByLayer
 10
140.7135878413648129
 20
-74.1925995085802015
 30
0.0
 11
142.7324455894049891
 21
-70.2303680827350689
 31
0.0
  0
LINE
  5
22B
100
AcDbEntity
100
AcDbLine
  8
halter
 62
256
370
-1
  6
ByLayer
 10
140.0902465302900737
 20
-68.4640668678751183
 30
0.0
 11
142.0493540441851223
 21
-64.3007514781801888
 31
0.0
  0
LINE
  5
22C
100
AcDbEntity
100
AcDbLine
  8
halter
 62
256
370
-1
  6
ByLayer
 10
142.0493540441851223
 20
-64.3007514781801888
 30
0.0
 11
142.0785145029599619
 21
-64.3134810253950207
 31
0.0
  0
LINE
  5
22D
100
AcDbEntity
100
AcDbLine
  8
halter
 62
256
370
-1
  6
ByLayer
 10
142.0785145029599619
 20
-64.3134810253950207
 30
0.0
 11
142.1666670611251675
 21
-64.3500924765300368
 31
0.0
  0
LINE
  5
22E
100
AcDbEntity
100
AcDbLine
  8
halter
 62
256
370
-1
  6
ByLayer
 10
142.1666670611251675
 20
-64.3500924765300368
 30
0.0
 11
142.3147645061100945
 21
-64.4081976817650173
 31
0.0
  0
LINE
  5
22F
100
AcDbEntity
100
AcDbLine
  8
halter
 62
256
370
-1
  6
ByLayer
 10
142.3147645061100945
 20
-64.4081976817650173
 30
0.0
 11
142.5236870197349219
 21
-64.4853802297950551
 31
0.0
  0
LINE
  5
230
100
AcDbEntity
100
AcDbLine
  8
halter
 62
256
370
-1
  6
ByLayer
 10
142.5236870197349219
 20
-64.4853802297950551
 30
0.0
 11
142.7942414341798383
 21
-64.5791974115401217
 31
0.0
  0
LINE
  5
231
100
AcDbEntity
100
AcDbLine
  8
halter
 62
256
370
-1
  6
ByLayer
 10
142.7942414341798383
 20
-64.5791974115401217
 30
0.0
 11
143.1271605399300597
 21
-64.6871821992900493
 31
0.0
  0
LINE
  5
232
100
AcDbEntity
100
AcDbLine
  8
halter
 62
256
370
-1
  6
ByLayer
 10
143.1271605399300597
 20
-64.6871821992900493
 30
0.0
 11
143.52310244128509
 21
-64.8068452466400799
 31
0.0
  0
LINE
  5
233
100
AcDbEntity
100
AcDbLine
  8
halter
 62
256
370
-1
  6
ByLayer
 10
143.52310244128509
 20
-64.8068452466400799
 30
0.0
 11
143.9826499641599185
 21
-64.9356769010251185
 31
0.0
  0
LINE
  5
234
100
AcDbEntity
100
AcDbLine
  8
halter
 62
256
370
-1
  6
ByLayer
 10
143.9826499641599185
 20
-64.9356769010251185
 30
0.0
 11
144.5063101145999269
 21
-65.0711492326351362
 31
0.0
  0
LINE
  5
235
100
AcDbEntity
100
AcDbLine
  8
halter
 62
256
370
-1
  6
ByLayer
 10
144.5063101145999269
 20
-65.0711492326351362
 30
0.0
 11
145.094513588324844
 21
-65.2107180762451293
 31
0.0
  0
LINE
  5
236
100
AcDbEntity
100
AcDbLine
  8
halter
 62
256
370
-1
  6
ByLayer
 10
144.1127047572448419
 20
-59.5326293103151087
 30
0.0
 11
144.1419459054750405
 21
-59.5451723951700913
 31
0.0
  0
LINE
  5
237
100
AcDbEntity
100
AcDbLine
  8
halter
 62
256
370
-1
  6
ByLayer
 10
144.1419459054750405
 20
-59.5451723951700913
 30
0.0
 11
144.2289790834199152
 21
-59.5843705815751363
 31
0.0
  0
LINE
  5
238
100
AcDbEntity
100
AcDbLine
  8
halter
 62
256
370
-1
  6
ByLayer
 10
144.2289790834199152
 20
-59.5843705815751363
 30
0.0
 11
144.3727156321798191
 21
-59.6525532227101678
 31
0.0
  0
LINE
  5
239
100
AcDbEntity
100
AcDbLine
  8
halter
 62
256
370
-1
  6
ByLayer
 10
144.3727156321798191
 20
-59.6525532227101678
 30
0.0
 11
144.5719965905248898
 21
-59.7520160905501143
 31
0.0
  0
LINE
  5
23A
100
AcDbEntity
100
AcDbLine
  8
halter
 62
256
370
-1
  6
ByLayer
 10
144.5719965905248898
 20
-59.7520160905501143
 30
0.0
 11
144.8255936140649851
 21
-59.8850194909051652
 31
0.0
  0
LINE
  5
23B
100
AcDbEntity
100
AcDbLine
  8
halter
 62
256
370
-1
  6
ByLayer
 10
144.8255936140649851
 20
-59.8850194909051652
 30
0.0
 11
145.1322099470248759
 21
-60.0537864001950084
 31
0.0
  0
LINE
  5
23C
100
AcDbEntity
100
AcDbLine
  8
halter
 62
256
370
-1
  6
ByLayer
 10
145.1322099470248759
 20
-60.0537864001950084
 30
0.0
 11
145.49048143717485
 21
-60.2605006318350931
 31
0.0
  0
LINE
  5
23D
100
AcDbEntity
100
AcDbLine
  8
halter
 62
256
370
-1
  6
ByLayer
 10
145.49048143717485
 20
-60.2605006318350931
 30
0.0
 11
145.8989775980101342
 21
-60.5073050224651254
 31
0.0
  0
LINE
  5
23E
100
AcDbEntity
100
AcDbLine
  8
halter
 62
256
370
-1
  6
ByLayer
 10
145.8989775980101342
 20
-60.5073050224651254
 30
0.0
 11
146.3562027181798726
 21
-60.796299651255076
 31
0.0
  0
LINE
  5
23F
100
AcDbEntity
100
AcDbLine
  8
halter
 62
256
370
-1
  6
ByLayer
 10
146.3562027181798726
 20
-60.796299651255076
 30
0.0
 11
146.8605970121851385
 21
-61.1295400822050539
 31
0.0
  0
LINE
  5
240
100
AcDbEntity
100
AcDbLine
  8
halter
 62
256
370
-1
  6
ByLayer
 10
145.094513588324844
 20
-65.2107180762451293
 30
0.0
 11
145.0945135870649949
 21
-65.2107180756150342
 31
0.0
  0
LINE
  5
241
100
AcDbEntity
100
AcDbLine
  8
halter
 62
256
370
-1
  6
ByLayer
 10
145.0945135870649949
 20
-65.2107180756150342
 30
0.0
 11
146.8605970109249199
 21
-61.1295400815751364
 31
0.0
  0
LINE
  5
242
100
AcDbEntity
100
AcDbLine
  8
halter
 62
256
370
-1
  6
ByLayer
 10
144.1127047572448419
 20
-59.5326293103151087
 30
0.0
 11
145.806529683464845
 21
-55.2545158939201713
 31
0.0
  0
LINE
  5
243
100
AcDbEntity
100
AcDbLine
  8
halter
 62
256
370
-1
  6
ByLayer
 10
145.806529683464845
 20
-55.2545158939201713
 30
0.0
 11
145.8364318957349042
 21
-55.2653893219050829
 31
0.0
  0
LINE
  5
244
100
AcDbEntity
100
AcDbLine
  8
halter
 62
256
370
-1
  6
ByLayer
 10
145.8364318957349042
 20
-55.2653893219050829
 30
0.0
 11
145.9267093569598899
 21
-55.2963933840151398
 31
0.0
  0
LINE
  5
245
100
AcDbEntity
100
AcDbLine
  8
halter
 62
256
370
-1
  6
ByLayer
 10
145.9267093569598899
 20
-55.2963933840151398
 30
0.0
 11
146.0781630214201243
 21
-55.3450848161401296
 31
0.0
  0
LINE
  5
246
100
AcDbEntity
100
AcDbLine
  8
halter
 62
256
370
-1
  6
ByLayer
 10
146.0781630214201243
 20
-55.3450848161401296
 30
0.0
 11
146.2915196063999304
 21
-55.4089967090101325
 31
0.0
  0
LINE
  5
247
100
AcDbEntity
100
AcDbLine
  8
halter
 62
256
370
-1
  6
ByLayer
 10
146.2915196063999304
 20
-55.4089967090101325
 30
0.0
 11
146.5674309732151244
 21
-55.4856405115950722
 31
0.0
  0
LINE
  5
248
100
AcDbEntity
100
AcDbLine
  8
halter
 62
256
370
-1
  6
ByLayer
 10
146.5674309732151244
 20
-55.4856405115950722
 30
0.0
 11
146.9064735602101734
 21
-55.5725080527750421
 31
0.0
  0
LINE
  5
249
100
AcDbEntity
100
AcDbLine
  8
halter
 62
256
370
-1
  6
ByLayer
 10
146.9064735602101734
 20
-55.5725080527750421
 30
0.0
 11
147.3091478655300932
 21
-55.6670735746651246
 31
0.0
  0
LINE
  5
24A
100
AcDbEntity
100
AcDbLine
  8
halter
 62
256
370
-1
  6
ByLayer
 10
147.3091478655300932
 20
-55.6670735746651246
 30
0.0
 11
147.7758779828097886
 21
-55.7667957813751514
 31
0.0
  0
LINE
  5
24B
100
AcDbEntity
100
AcDbLine
  8
halter
 62
256
370
-1
  6
ByLayer
 10
147.7758779828097886
 20
-55.7667957813751514
 30
0.0
 11
148.3070111875798318
 21
-55.8691198962750164
 31
0.0
  0
LINE
  5
24C
100
AcDbEntity
100
AcDbLine
  8
halter
 62
256
370
-1
  6
ByLayer
 10
148.3070111875798318
 20
-55.8691198962750164
 30
0.0
 11
148.9028175762749413
 21
-55.9714797309151351
 31
0.0
  0
LINE
  5
24D
100
AcDbEntity
100
AcDbLine
  8
halter
 62
256
370
-1
  6
ByLayer
 10
147.5664159768749926
 20
-50.3662436628750498
 30
0.0
 11
147.5963870116051169
 21
-50.3769259299599881
 31
0.0
  0
LINE
  5
24E
100
AcDbEntity
100
AcDbLine
  8
halter
 62
256
370
-1
  6
ByLayer
 10
147.5963870116051169
 20
-50.3769259299599881
 30
0.0
 11
147.6857097235799472
 21
-50.410581909029986
 31
0.0
  0
LINE
  5
24F
100
AcDbEntity
100
AcDbLine
  8
halter
 62
256
370
-1
  6
ByLayer
 10
147.6857097235799472
 20
-50.410581909029986
 30
0.0
 11
147.8334438648900857
 21
-50.4696047149351372
 31
0.0
  0
LINE
  5
250
100
AcDbEntity
100
AcDbLine
  8
halter
 62
256
370
-1
  6
ByLayer
 10
147.8334438648900857
 20
-50.4696047149351372
 30
0.0
 11
148.0385769127649951
 21
-50.5563583606201092
 31
0.0
  0
LINE
  5
251
100
AcDbEntity
100
AcDbLine
  8
halter
 62
256
370
-1
  6
ByLayer
 10
148.0385769127649951
 20
-50.5563583606201092
 30
0.0
 11
148.3000248731399893
 21
-50.6731758201901599
 31
0.0
  0
LINE
  5
252
100
AcDbEntity
100
AcDbLine
  8
halter
 62
256
370
-1
  6
ByLayer
 10
148.3000248731399893
 20
-50.6731758201901599
 30
0.0
 11
148.616633130839972
 21
-50.8223571077250966
 31
0.0
  0
LINE
  5
253
100
AcDbEntity
100
AcDbLine
  8
halter
 62
256
370
-1
  6
ByLayer
 10
148.616633130839972
 20
-50.8223571077250966
 30
0.0
 11
148.9871773479599426
 21
-51.0061673831850158
 31
0.0
  0
LINE
  5
254
100
AcDbEntity
100
AcDbLine
  8
halter
 62
256
370
-1
  6
ByLayer
 10
148.9871773479599426
 20
-51.0061673831850158
 30
0.0
 11
149.4103644110698781
 21
-51.2268350756401034
 31
0.0
  0
LINE
  5
255
100
AcDbEntity
100
AcDbLine
  8
halter
 62
256
370
-1
  6
ByLayer
 10
149.4103644110698781
 20
-51.2268350756401034
 30
0.0
 11
149.8848334244100897
 21
-51.4865500364251076
 31
0.0
  0
LINE
  5
256
100
AcDbEntity
100
AcDbLine
  8
halter
 62
256
370
-1
  6
ByLayer
 10
149.8848334244100897
 20
-51.4865500364251076
 30
0.0
 11
150.4091567515950771
 21
-51.7874617137150963
 31
0.0
  0
LINE
  5
257
100
AcDbEntity
100
AcDbLine
  8
halter
 62
256
370
-1
  6
ByLayer
 10
148.9028175762749413
 20
-55.9714797309151351
 30
0.0
 11
148.9028175750150922
 21
-55.9714797306001444
 31
0.0
  0
LINE
  5
258
100
AcDbEntity
100
AcDbLine
  8
halter
 62
256
370
-1
  6
ByLayer
 10
148.9028175750150922
 20
-55.9714797306001444
 30
0.0
 11
150.4091567500200881
 21
-51.7874617134000843
 31
0.0
  0
LINE
  5
259
100
AcDbEntity
100
AcDbLine
  8
halter
 62
256
370
-1
  6
ByLayer
 10
147.5664159768749926
 20
-50.3662436628750498
 30
0.0
 11
148.9882735627651869
 21
-45.9902159788050469
 31
0.0
  0
LINE
  5
25A
100
AcDbEntity
100
AcDbLine
  8
halter
 62
256
370
-1
  6
ByLayer
 10
148.9882735627651869
 20
-45.9902159788050469
 30
0.0
 11
149.0187995181899225
 21
-45.9991903754250373
 31
0.0
  0
LINE
  5
25B
100
AcDbEntity
100
AcDbLine
  8
halter
 62
256
370
-1
  6
ByLayer
 10
149.0187995181899225
 20
-45.9991903754250373
 30
0.0
 11
149.1108455985748265
 21
-46.0244646889651605
 31
0.0
  0
LINE
  5
25C
100
AcDbEntity
100
AcDbLine
  8
halter
 62
256
370
-1
  6
ByLayer
 10
149.1108455985748265
 20
-46.0244646889651605
 30
0.0
 11
149.2650577640248741
 21
-46.0635501856950995
 31
0.0
  0
LINE
  5
25D
100
AcDbEntity
100
AcDbLine
  8
halter
 62
256
370
-1
  6
ByLayer
 10
149.2650577640248741
 20
-46.0635501856950995
 30
0.0
 11
149.4820063995299222
 21
-46.1139391921951542
 31
0.0
  0
LINE
  5
25E
100
AcDbEntity
100
AcDbLine
  8
halter
 62
256
370
-1
  6
ByLayer
 10
149.4820063995299222
 20
-46.1139391921951542
 30
0.0
 11
149.7621858226199834
 21
-46.1731071378151157
 31
0.0
  0
LINE
  5
25F
100
AcDbEntity
100
AcDbLine
  8
halter
 62
256
370
-1
  6
ByLayer
 10
149.7621858226199834
 20
-46.1731071378151157
 30
0.0
 11
150.106013844255159
 21
-46.2385146053250864
 31
0.0
  0
LINE
  5
260
100
AcDbEntity
100
AcDbLine
  8
halter
 62
256
370
-1
  6
ByLayer
 10
150.106013844255159
 20
-46.2385146053250864
 30
0.0
 11
150.5138313820050087
 21
-46.3076093951101342
 31
0.0
  0
LINE
  5
261
100
AcDbEntity
100
AcDbLine
  8
halter
 62
256
370
-1
  6
ByLayer
 10
150.5138313820050087
 20
-46.3076093951101342
 30
0.0
 11
150.9859021233149292
 21
-46.3778285962951315
 31
0.0
  0
LINE
  5
262
100
AcDbEntity
100
AcDbLine
  8
halter
 62
256
370
-1
  6
ByLayer
 10
150.9859021233149292
 20
-46.3778285962951315
 30
0.0
 11
151.5224122423202004
 21
-46.4466006679500936
 31
0.0
  0
LINE
  5
263
100
AcDbEntity
100
AcDbLine
  8
halter
 62
256
370
-1
  6
ByLayer
 10
151.5224122423202004
 20
-46.4466006679500936
 30
0.0
 11
152.1234701705249961
 21
-46.5113475262800904
 31
0.0
  0
LINE
  5
264
100
AcDbEntity
100
AcDbLine
  8
halter
 62
256
370
-1
  6
ByLayer
 10
150.4377499697100973
 20
-41.0010854617351157
 30
0.0
 11
150.4683326084398232
 21
-41.0098647530250915
 31
0.0
  0
LINE
  5
265
100
AcDbEntity
100
AcDbLine
  8
halter
 62
256
370
-1
  6
ByLayer
 10
150.4683326084398232
 20
-41.0098647530250915
 30
0.0
 11
150.5595923388900701
 21
-41.037845700285061
 31
0.0
  0
LINE
  5
266
100
AcDbEntity
100
AcDbLine
  8
halter
 62
256
370
-1
  6
ByLayer
 10
150.5595923388900701
 20
-41.037845700285061
 30
0.0
 11
150.7107410332651227
 21
-41.0874757344450714
 31
0.0
  0
LINE
  5
267
100
AcDbEntity
100
AcDbLine
  8
halter
 62
256
370
-1
  6
ByLayer
 10
150.7107410332651227
 20
-41.0874757344450714
 30
0.0
 11
150.9209166046051394
 21
-41.1611777813250583
 31
0.0
  0
LINE
  5
268
100
AcDbEntity
100
AcDbLine
  8
halter
 62
256
370
-1
  6
ByLayer
 10
150.9209166046051394
 20
-41.1611777813250583
 30
0.0
 11
151.1891836859250304
 21
-41.2613482749300928
 31
0.0
  0
LINE
  5
269
100
AcDbEntity
100
AcDbLine
  8
halter
 62
256
370
-1
  6
ByLayer
 10
151.1891836859250304
 20
-41.2613482749300928
 30
0.0
 11
151.5145343600700585
 21
-41.3903551902750451
 31
0.0
  0
LINE
  5
26A
100
AcDbEntity
100
AcDbLine
  8
halter
 62
256
370
-1
  6
ByLayer
 10
151.5145343600700585
 20
-41.3903551902750451
 30
0.0
 11
151.8958889355600377
 21
-41.550536094165011
 31
0.0
  0
LINE
  5
26B
100
AcDbEntity
100
AcDbLine
  8
halter
 62
256
370
-1
  6
ByLayer
 10
151.8958889355600377
 20
-41.550536094165011
 30
0.0
 11
152.3320967747250165
 21
-41.7441962136150551
 31
0.0
  0
LINE
  5
26C
100
AcDbEntity
100
AcDbLine
  8
halter
 62
256
370
-1
  6
ByLayer
 10
152.3320967747250165
 20
-41.7441962136150551
 30
0.0
 11
152.8219371694049471
 21
-41.9736065307301445
 31
0.0
  0
LINE
  5
26D
100
AcDbEntity
100
AcDbLine
  8
halter
 62
256
370
-1
  6
ByLayer
 10
152.8219371694049471
 20
-41.9736065307301445
 30
0.0
 11
153.364120264529987
 21
-42.2410018933351523
 31
0.0
  0
LINE
  5
26E
100
AcDbEntity
100
AcDbLine
  8
halter
 62
256
370
-1
  6
ByLayer
 10
152.1234701705249961
 20
-46.5113475262800904
 30
0.0
 11
152.123470169265147
 21
-46.5113475259650286
 31
0.0
  0
LINE
  5
26F
100
AcDbEntity
100
AcDbLine
  8
halter
 62
256
370
-1
  6
ByLayer
 10
152.123470169265147
 20
-46.5113475259650286
 30
0.0
 11
153.364120262954998
 21
-42.241001893020055
 31
0.0
  0
LINE
  5
270
100
AcDbEntity
100
AcDbLine
  8
halter
 62
256
370
-1
  6
ByLayer
 10
150.4377499697100973
 20
-41.0010854617351157
 30
0.0
 11
151.5820287926702008
 21
-36.5444136924299698
 31
0.0
  0
LINE
  5
271
100
AcDbEntity
100
AcDbLine
  8
halter
 62
256
370
-1
  6
ByLayer
 10
151.5820287926702008
 20
-36.5444136924299698
 30
0.0
 11
151.6130580188699355
 21
-36.5514536394001723
 31
0.0
  0
LINE
  5
272
100
AcDbEntity
100
AcDbLine
  8
halter
 62
256
370
-1
  6
ByLayer
 10
151.6130580188699355
 20
-36.5514536394001723
 30
0.0
 11
151.7065094547448609
 21
-36.5708984586750105
 31
0.0
  0
LINE
  5
273
100
AcDbEntity
100
AcDbLine
  8
halter
 62
256
370
-1
  6
ByLayer
 10
151.7065094547448609
 20
-36.5708984586750105
 30
0.0
 11
151.8628715166148879
 21
-36.6002237670300516
 31
0.0
  0
LINE
  5
274
100
AcDbEntity
100
AcDbLine
  8
halter
 62
256
370
-1
  6
ByLayer
 10
151.8628715166148879
 20
-36.6002237670300516
 30
0.0
 11
152.082556005239951
 21
-36.6368910248251254
 31
0.0
  0
LINE
  5
275
100
AcDbEntity
100
AcDbLine
  8
halter
 62
256
370
-1
  6
ByLayer
 10
152.082556005239951
 20
-36.6368910248251254
 30
0.0
 11
152.3658977442001117
 21
-36.6783496042951285
 31
0.0
  0
LINE
  5
276
100
AcDbEntity
100
AcDbLine
  8
halter
 62
256
370
-1
  6
ByLayer
 10
152.3658977442001117
 20
-36.6783496042951285
 30
0.0
 11
152.7131542689899959
 21
-36.7220388650851319
 31
0.0
  0
LINE
  5
277
100
AcDbEntity
100
AcDbLine
  8
halter
 62
256
370
-1
  6
ByLayer
 10
152.7131542689899959
 20
-36.7220388650851319
 30
0.0
 11
153.1245055696651605
 21
-36.7653902370301964
 31
0.0
  0
LINE
  5
278
100
AcDbEntity
100
AcDbLine
  8
halter
 62
256
370
-1
  6
ByLayer
 10
153.1245055696651605
 20
-36.7653902370301964
 30
0.0
 11
153.6000538870350169
 21
-36.8058293095500986
 31
0.0
  0
LINE
  5
279
100
AcDbEntity
100
AcDbLine
  8
halter
 62
256
370
-1
  6
ByLayer
 10
153.6000538870350169
 20
-36.8058293095500986
 30
0.0
 11
154.1398235602049169
 21
-36.8407779264000581
 31
0.0
  0
LINE
  5
27A
100
AcDbEntity
100
AcDbLine
  8
halter
 62
256
370
-1
  6
ByLayer
 10
154.1398235602049169
 20
-36.8407779264000581
 30
0.0
 11
154.7437609267198297
 21
-36.8676562816801336
 31
0.0
  0
LINE
  5
27B
100
AcDbEntity
100
AcDbLine
  8
halter
 62
256
370
-1
  6
ByLayer
 10
152.715374891729823
 20
-31.4741147079240946
 30
0.0
 11
152.7464484387451193
 21
-31.4809563755926796
 31
0.0
  0
LINE
  5
27C
100
AcDbEntity
100
AcDbLine
  8
halter
 62
256
370
-1
  6
ByLayer
 10
152.7464484387451193
 20
-31.4809563755926796
 30
0.0
 11
152.8392850273799013
 21
-31.503151862910066
 31
0.0
  0
LINE
  5
27D
100
AcDbEntity
100
AcDbLine
  8
halter
 62
256
370
-1
  6
ByLayer
 10
152.8392850273799013
 20
-31.503151862910066
 30
0.0
 11
152.9932517599499704
 21
-31.5431932586399917
 31
0.0
  0
LINE
  5
27E
100
AcDbEntity
100
AcDbLine
  8
halter
 62
256
370
-1
  6
ByLayer
 10
152.9932517599499704
 20
-31.5431932586399917
 30
0.0
 11
153.2076403876198754
 21
-31.6035528379201267
 31
0.0
  0
LINE
  5
27F
100
AcDbEntity
100
AcDbLine
  8
halter
 62
256
370
-1
  6
ByLayer
 10
153.2076403876198754
 20
-31.6035528379201267
 30
0.0
 11
153.481667862600176
 21
-31.6866810383550508
 31
0.0
  0
LINE
  5
280
100
AcDbEntity
100
AcDbLine
  8
halter
 62
256
370
-1
  6
ByLayer
 10
153.481667862600176
 20
-31.6866810383550508
 30
0.0
 11
153.8144769426300229
 21
-31.7950044504750835
 31
0.0
  0
LINE
  5
281
100
AcDbEntity
100
AcDbLine
  8
halter
 62
256
370
-1
  6
ByLayer
 10
153.8144769426300229
 20
-31.7950044504750835
 30
0.0
 11
154.2051368439748273
 21
-31.9309238218950817
 31
0.0
  0
LINE
  5
282
100
AcDbEntity
100
AcDbLine
  8
halter
 62
256
370
-1
  6
ByLayer
 10
154.2051368439748273
 20
-31.9309238218950817
 30
0.0
 11
154.6526439460799622
 21
-32.0968120806900501
 31
0.0
  0
LINE
  5
283
100
AcDbEntity
100
AcDbLine
  8
halter
 62
256
370
-1
  6
ByLayer
 10
154.6526439460799622
 20
-32.0968120806900501
 30
0.0
 11
155.1559225456800846
 21
-32.2950123757800611
 31
0.0
  0
LINE
  5
284
100
AcDbEntity
100
AcDbLine
  8
halter
 62
256
370
-1
  6
ByLayer
 10
155.1559225456800846
 20
-32.2950123757800611
 30
0.0
 11
155.7138256600499346
 21
-32.5278361368449609
 31
0.0
  0
LINE
  5
285
100
AcDbEntity
100
AcDbLine
  8
halter
 62
256
370
-1
  6
ByLayer
 10
154.7437609267198297
 20
-36.8676562816801336
 30
0.0
 11
154.7437609254599806
 21
-36.8676562813651358
 31
0.0
  0
LINE
  5
286
100
AcDbEntity
100
AcDbLine
  8
halter
 62
256
370
-1
  6
ByLayer
 10
154.7437609254599806
 20
-36.8676562813651358
 30
0.0
 11
155.7138256587900855
 21
-32.5278361365300768
 31
0.0
  0
LINE
  5
287
100
AcDbEntity
100
AcDbLine
  8
halter
 62
256
370
-1
  6
ByLayer
 10
152.715374891729823
 20
-31.4741147079240946
 30
0.0
 11
153.5775590059199374
 21
-26.9543873005471433
 31
0.0
  0
LINE
  5
288
100
AcDbEntity
100
AcDbLine
  8
halter
 62
256
370
-1
  6
ByLayer
 10
153.5775590059199374
 20
-26.9543873005471433
 30
0.0
 11
153.6089690453849244
 21
-26.959465014426101
 31
0.0
  0
LINE
  5
289
100
AcDbEntity
100
AcDbLine
  8
halter
 62
256
370
-1
  6
ByLayer
 10
153.6089690453849244
 20
-26.959465014426101
 30
0.0
 11
153.7034570262450188
 21
-26.9730035998291306
 31
0.0
  0
LINE
  5
28A
100
AcDbEntity
100
AcDbLine
  8
halter
 62
256
370
-1
  6
ByLayer
 10
153.7034570262450188
 20
-26.9730035998291306
 30
0.0
 11
153.861351894494959
 21
-26.9924529862576605
 31
0.0
  0
LINE
  5
28B
100
AcDbEntity
100
AcDbLine
  8
halter
 62
256
370
-1
  6
ByLayer
 10
153.861351894494959
 20
-26.9924529862576605
 30
0.0
 11
154.0829052422101597
 21
-27.015253786426495
 31
0.0
  0
LINE
  5
28C
100
AcDbEntity
100
AcDbLine
  8
halter
 62
256
370
-1
  6
ByLayer
 10
154.0829052422101597
 20
-27.015253786426495
 30
0.0
 11
154.3682910769650789
 21
-27.0388393818795194
 31
0.0
  0
LINE
  5
28D
100
AcDbEntity
100
AcDbLine
  8
halter
 62
256
370
-1
  6
ByLayer
 10
154.3682910769650789
 20
-27.0388393818795194
 30
0.0
 11
154.7176056413399294
 21
-27.0606380142420164
 31
0.0
  0
LINE
  5
28E
100
AcDbEntity
100
AcDbLine
  8
halter
 62
256
370
-1
  6
ByLayer
 10
154.7176056413399294
 20
-27.0606380142420164
 30
0.0
 11
155.1308672894400331
 21
-27.0780748801921867
 31
0.0
  0
LINE
  5
28F
100
AcDbEntity
100
AcDbLine
  8
halter
 62
256
370
-1
  6
ByLayer
 10
155.1308672894400331
 20
-27.0780748801921867
 30
0.0
 11
155.6080164112950399
 21
-27.0885742296435517
 31
0.0
  0
LINE
  5
290
100
AcDbEntity
100
AcDbLine
  8
halter
 62
256
370
-1
  6
ByLayer
 10
155.6080164112950399
 20
-27.0885742296435517
 30
0.0
 11
156.1489154139599691
 21
-27.0895614650641789
 31
0.0
  0
LINE
  5
291
100
AcDbEntity
100
AcDbLine
  8
halter
 62
256
370
-1
  6
ByLayer
 10
156.1489154139599691
 20
-27.0895614650641789
 30
0.0
 11
156.7533487539599264
 21
-27.0784652412331432
 31
0.0
  0
LINE
  5
292
100
AcDbEntity
100
AcDbLine
  8
halter
 62
256
370
-1
  6
ByLayer
 10
154.3903019983800675
 20
-21.8229300025695565
 30
0.0
 11
154.4217438207149087
 21
-21.8278070455724347
 31
0.0
  0
LINE
  5
293
100
AcDbEntity
100
AcDbLine
  8
halter
 62
256
370
-1
  6
ByLayer
 10
154.4217438207149087
 20
-21.8278070455724347
 30
0.0
 11
154.5157908834748923
 21
-21.8441294776217916
 31
0.0
  0
LINE
  5
294
100
AcDbEntity
100
AcDbLine
  8
halter
 62
256
370
-1
  6
ByLayer
 10
154.5157908834748923
 20
-21.8441294776217916
 30
0.0
 11
154.6719680179801628
 21
-21.874424209564399
 31
0.0
  0
LINE
  5
295
100
AcDbEntity
100
AcDbLine
  8
halter
 62
256
370
-1
  6
ByLayer
 10
154.6719680179801628
 20
-21.874424209564399
 30
0.0
 11
154.8897236078848039
 21
-21.9212031096137601
 31
0.0
  0
LINE
  5
296
100
AcDbEntity
100
AcDbLine
  8
halter
 62
256
370
-1
  6
ByLayer
 10
154.8897236078848039
 20
-21.9212031096137601
 30
0.0
 11
155.1684300150598972
 21
-21.986960948158643
 31
0.0
  0
LINE
  5
297
100
AcDbEntity
100
AcDbLine
  8
halter
 62
256
370
-1
  6
ByLayer
 10
155.1684300150598972
 20
-21.986960948158643
 30
0.0
 11
155.507384055870034
 21
-22.0741733536696287
 31
0.0
  0
LINE
  5
298
100
AcDbEntity
100
AcDbLine
  8
halter
 62
256
370
-1
  6
ByLayer
 10
155.507384055870034
 20
-22.0741733536696287
 30
0.0
 11
155.905807527225079
 21
-22.1852947810409837
 31
0.0
  0
LINE
  5
299
100
AcDbEntity
100
AcDbLine
  8
halter
 62
256
370
-1
  6
ByLayer
 10
155.905807527225079
 20
-22.1852947810409837
 30
0.0
 11
156.3628477861801116
 21
-22.322756493827999
 31
0.0
  0
LINE
  5
29A
100
AcDbEntity
100
AcDbLine
  8
halter
 62
256
370
-1
  6
ByLayer
 10
156.3628477861801116
 20
-22.322756493827999
 30
0.0
 11
156.8775783799350449
 21
-22.4889645612240621
 31
0.0
  0
LINE
  5
29B
100
AcDbEntity
100
AcDbLine
  8
halter
 62
256
370
-1
  6
ByLayer
 10
156.8775783799350449
 20
-22.4889645612240621
 30
0.0
 11
157.4489997246598421
 21
-22.6862978712614769
 31
0.0
  0
LINE
  5
29C
100
AcDbEntity
100
AcDbLine
  8
halter
 62
256
370
-1
  6
ByLayer
 10
156.7533487539599264
 20
-27.0784652412331432
 30
0.0
 11
156.7533487527000773
 21
-27.0784652409810782
 31
0.0
  0
LINE
  5
29D
100
AcDbEntity
100
AcDbLine
  8
halter
 62
256
370
-1
  6
ByLayer
 10
156.7533487527000773
 20
-27.0784652409810782
 30
0.0
 11
157.4489997234000214
 21
-22.6862978710726466
 31
0.0
  0
LINE
  5
29E
100
AcDbEntity
100
AcDbLine
  8
halter
 62
256
370
-1
  6
ByLayer
 10
154.3903019983800675
 20
-21.8229300025695565
 30
0.0
 11
154.9669887571051561
 21
-17.2579842562995758
 31
0.0
  0
LINE
  5
29F
100
AcDbEntity
100
AcDbLine
  8
halter
 62
256
370
-1
  6
ByLayer
 10
154.9669887571051561
 20
-17.2579842562995758
 30
0.0
 11
154.9986556478849025
 21
-17.261079697826986
 31
0.0
  0
LINE
  5
2A0
100
AcDbEntity
100
AcDbLine
  8
halter
 62
256
370
-1
  6
ByLayer
 10
154.9986556478849025
 20
-17.261079697826986
 30
0.0
 11
155.093807273265071
 21
-17.2686586184910773
 31
0.0
  0
LINE
  5
2A1
100
AcDbEntity
100
AcDbLine
  8
halter
 62
256
370
-1
  6
ByLayer
 10
155.093807273265071
 20
-17.2686586184910773
 30
0.0
 11
155.2526118092251295
 21
-17.2781553251790996
 31
0.0
  0
LINE
  5
2A2
100
AcDbEntity
100
AcDbLine
  8
halter
 62
256
370
-1
  6
ByLayer
 10
155.2526118092251295
 20
-17.2781553251790996
 30
0.0
 11
155.4751596462751309
 21
-17.2869996833731179
 31
0.0
  0
LINE
  5
2A3
100
AcDbEntity
100
AcDbLine
  8
halter
 62
256
370
-1
  6
ByLayer
 10
155.4751596462751309
 20
-17.2869996833731179
 30
0.0
 11
155.7614632886551647
 21
-17.2926192132540528
 31
0.0
  0
LINE
  5
2A4
100
AcDbEntity
100
AcDbLine
  8
halter
 62
256
370
-1
  6
ByLayer
 10
155.7614632886551647
 20
-17.2926192132540528
 30
0.0
 11
156.1114573083448533
 21
-17.2924411879801596
 31
0.0
  0
LINE
  5
2A5
100
AcDbEntity
100
AcDbLine
  8
halter
 62
256
370
-1
  6
ByLayer
 10
156.1114573083448533
 20
-17.2924411879801596
 30
0.0
 11
156.5249983488450596
 21
-17.2838947326885126
 31
0.0
  0
LINE
  5
2A6
100
AcDbEntity
100
AcDbLine
  8
halter
 62
256
370
-1
  6
ByLayer
 10
156.5249983488450596
 20
-17.2838947326885126
 30
0.0
 11
157.0018651853399092
 21
-17.2644129228060912
 31
0.0
  0
LINE
  5
2A7
100
AcDbEntity
100
AcDbLine
  8
halter
 62
256
370
-1
  6
ByLayer
 10
157.0018651853399092
 20
-17.2644129228060912
 30
0.0
 11
157.5417588365248776
 21
-17.2314348807510598
 31
0.0
  0
LINE
  5
2A8
100
AcDbEntity
100
AcDbLine
  8
halter
 62
256
370
-1
  6
ByLayer
 10
157.5417588365248776
 20
-17.2314348807510598
 30
0.0
 11
158.144302727774857
 21
-17.1824078693295164
 31
0.0
  0
LINE
  5
2A9
100
AcDbEntity
100
AcDbLine
  8
halter
 62
256
370
-1
  6
ByLayer
 10
155.4559211167199635
 20
-12.0856201624306507
 30
0.0
 11
155.4876071279998371
 21
-12.0885133333545145
 31
0.0
  0
LINE
  5
2AA
100
AcDbEntity
100
AcDbLine
  8
halter
 62
256
370
-1
  6
ByLayer
 10
155.4876071279998371
 20
-12.0885133333545145
 30
0.0
 11
155.582493504480027
 21
-12.0988982928555711
 31
0.0
  0
LINE
  5
2AB
100
AcDbEntity
100
AcDbLine
  8
halter
 62
256
370
-1
  6
ByLayer
 10
155.582493504480027
 20
-12.0988982928555711
 30
0.0
 11
155.740264681049922
 21
-12.1193268016588878
 31
0.0
  0
LINE
  5
2AC
100
AcDbEntity
100
AcDbLine
  8
halter
 62
256
370
-1
  6
ByLayer
 10
155.740264681049922
 20
-12.1193268016588878
 30
0.0
 11
155.9605278514499958
 21
-12.1523404076235533
 31
0.0
  0
LINE
  5
2AD
100
AcDbEntity
100
AcDbLine
  8
halter
 62
256
370
-1
  6
ByLayer
 10
155.9605278514499958
 20
-12.1523404076235533
 30
0.0
 11
156.2428132640549734
 21
-12.2004683679692434
 31
0.0
  0
LINE
  5
2AE
100
AcDbEntity
100
AcDbLine
  8
halter
 62
256
370
-1
  6
ByLayer
 10
156.2428132640549734
 20
-12.2004683679692434
 30
0.0
 11
156.5865745686898833
 21
-12.2662255793805404
 31
0.0
  0
LINE
  5
2AF
100
AcDbEntity
100
AcDbLine
  8
halter
 62
256
370
-1
  6
ByLayer
 10
156.5865745686898833
 20
-12.2662255793805404
 30
0.0
 11
156.9911892144749856
 21
-12.3521105172779802
 31
0.0
  0
LINE
  5
2B0
100
AcDbEntity
100
AcDbLine
  8
halter
 62
256
370
-1
  6
ByLayer
 10
156.9911892144749856
 20
-12.3521105172779802
 30
0.0
 11
157.4559589012199012
 21
-12.4606031854814852
 31
0.0
  0
LINE
  5
2B1
100
AcDbEntity
100
AcDbLine
  8
halter
 62
256
370
-1
  6
ByLayer
 10
157.4559589012199012
 20
-12.4606031854814852
 30
0.0
 11
157.9801100827949085
 21
-12.5941630778146134
 31
0.0
  0
LINE
  5
2B2
100
AcDbEntity
100
AcDbLine
  8
halter
 62
256
370
-1
  6
ByLayer
 10
157.9801100827949085
 20
-12.5941630778146134
 30
0.0
 11
158.562794519009941
 21
-12.7552271524965271
 31
0.0
  0
LINE
  5
2B3
100
AcDbEntity
100
AcDbLine
  8
halter
 62
256
370
-1
  6
ByLayer
 10
158.144302727774857
 20
-17.1824078693295164
 30
0.0
 11
158.1443027265150079
 21
-17.1824078691720139
 31
0.0
  0
LINE
  5
2B4
100
AcDbEntity
100
AcDbLine
  8
halter
 62
256
370
-1
  6
ByLayer
 10
158.1443027265150079
 20
-17.1824078691720139
 30
0.0
 11
158.5627945177500919
 21
-12.755227152402254
 31
0.0
  0
LINE
  5
2B5
100
AcDbEntity
100
AcDbLine
  8
halter
 62
256
370
-1
  6
ByLayer
 10
155.4559211167199635
 20
-12.0856201624306507
 30
0.0
 11
155.7448346008799831
 21
-7.4934718326406937
 31
0.0
  0
LINE
  5
2B6
100
AcDbEntity
100
AcDbLine
  8
halter
 62
256
370
-1
  6
ByLayer
 10
155.7448346008799831
 20
-7.4934718326406937
 30
0.0
 11
155.7766333689299927
 21
-7.4945727854867759
 31
0.0
  0
LINE
  5
2B7
100
AcDbEntity
100
AcDbLine
  8
halter
 62
256
370
-1
  6
ByLayer
 10
155.7766333689299927
 20
-7.4945727854867759
 30
0.0
 11
155.8720731188251136
 21
-7.4961621308700721
 31
0.0
  0
LINE
  5
2B8
100
AcDbEntity
100
AcDbLine
  8
halter
 62
256
370
-1
  6
ByLayer
 10
155.8720731188251136
 20
-7.4961621308700721
 30
0.0
 11
156.0311605934550698
 21
-7.4956686786766893
 31
0.0
  0
LINE
  5
2B9
100
AcDbEntity
100
AcDbLine
  8
halter
 62
256
370
-1
  6
ByLayer
 10
156.0311605934550698
 20
-7.4956686786766893
 30
0.0
 11
156.2538246248701341
 21
-7.4905216902493237
 31
0.0
  0
LINE
  5
2BA
100
AcDbEntity
100
AcDbLine
  8
halter
 62
256
370
-1
  6
ByLayer
 10
156.2538246248701341
 20
-7.4905216902493237
 30
0.0
 11
156.5399161657799425
 21
-7.4781529767946093
 31
0.0
  0
LINE
  5
2BB
100
AcDbEntity
100
AcDbLine
  8
halter
 62
256
370
-1
  6
ByLayer
 10
156.5399161657799425
 20
-7.4781529767946093
 30
0.0
 11
156.889208373659784
 21
-7.4559989965231566
 31
0.0
  0
LINE
  5
2BC
100
AcDbEntity
100
AcDbLine
  8
halter
 62
256
370
-1
  6
ByLayer
 10
156.889208373659784
 20
-7.4559989965231566
 30
0.0
 11
157.3013967490351206
 21
-7.4215029489297795
 31
0.0
  0
LINE
  5
2BD
100
AcDbEntity
100
AcDbLine
  8
halter
 62
256
370
-1
  6
ByLayer
 10
157.3013967490351206
 20
-7.4215029489297795
 30
0.0
 11
157.7760993251100672
 21
-7.3721168655119875
 31
0.0
  0
LINE
  5
2BE
100
AcDbEntity
100
AcDbLine
  8
halter
 62
256
370
-1
  6
ByLayer
 10
157.7760993251100672
 20
-7.3721168655119875
 30
0.0
 11
158.3128569109498756
 21
-7.305303695255688
 31
0.0
  0
LINE
  5
2BF
100
AcDbEntity
100
AcDbLine
  8
halter
 62
256
370
-1
  6
ByLayer
 10
158.3128569109498756
 20
-7.305303695255688
 30
0.0
 11
158.9111333878950632
 21
-7.2185393834819198
 31
0.0
  0
LINE
  5
2C0
100
AcDbEntity
100
AcDbLine
  8
halter
 62
256
370
-1
  6
ByLayer
 10
155.9080267359299512
 20
-2.3006139008985462
 30
0.0
 11
155.9398318855650416
 21
-2.3015117817031423
 31
0.0
  0
LINE
  5
2C1
100
AcDbEntity
100
AcDbLine
  8
halter
 62
256
370
-1
  6
ByLayer
 10
155.9398318855650416
 20
-2.3015117817031423
 30
0.0
 11
156.0351831028201559
 21
-2.3059182839944352
 31
0.0
  0
LINE
  5
2C2
100
AcDbEntity
100
AcDbLine
  8
halter
 62
256
370
-1
  6
ByLayer
 10
156.0351831028201559
 20
-2.3059182839944352
 30
0.0
 11
156.1939256704048375
 21
-2.3163999476593653
 31
0.0
  0
LINE
  5
2C3
100
AcDbEntity
100
AcDbLine
  8
halter
 62
256
370
-1
  6
ByLayer
 10
156.1939256704048375
 20
-2.3163999476593653
 30
0.0
 11
156.4158271432051208
 21
-2.335517969903826
 31
0.0
  0
LINE
  5
2C4
100
AcDbEntity
100
AcDbLine
  8
halter
 62
256
370
-1
  6
ByLayer
 10
156.4158271432051208
 20
-2.335517969903826
 30
0.0
 11
156.7005775098751315
 21
-2.3658261129966167
 31
0.0
  0
LINE
  5
2C5
100
AcDbEntity
100
AcDbLine
  8
halter
 62
256
370
-1
  6
ByLayer
 10
156.7005775098751315
 20
-2.3658261129966167
 30
0.0
 11
157.0477894095600391
 21
-2.4098686166705447
 31
0.0
  0
LINE
  5
2C6
100
AcDbEntity
100
AcDbLine
  8
halter
 62
256
370
-1
  6
ByLayer
 10
157.0477894095600391
 20
-2.4098686166705447
 30
0.0
 11
157.4569984005898675
 21
-2.4701781164321335
 31
0.0
  0
LINE
  5
2C7
100
AcDbEntity
100
AcDbLine
  8
halter
 62
256
370
-1
  6
ByLayer
 10
157.4569984005898675
 20
-2.4701781164321335
 30
0.0
 11
157.9276632814650156
 21
-2.5492735690351722
 31
0.0
  0
LINE
  5
2C8
100
AcDbEntity
100
AcDbLine
  8
halter
 62
256
370
-1
  6
ByLayer
 10
157.9276632814650156
 20
-2.5492735690351722
 30
0.0
 11
158.459166465074901
 21
-2.6496581864477875
 31
0.0
  0
LINE
  5
2C9
100
AcDbEntity
100
AcDbLine
  8
halter
 62
256
370
-1
  6
ByLayer
 10
158.459166465074901
 20
-2.6496581864477875
 30
0.0
 11
159.0508144039501701
 21
-2.773817379500005
 31
0.0
  0
LINE
  5
2CA
100
AcDbEntity
100
AcDbLine
  8
halter
 62
256
370
-1
  6
ByLayer
 10
158.9111333878950632
 20
-7.2185393834819198
 30
0.0
 11
158.9111333863200741
 21
-7.2185393834192855
 31
0.0
  0
LINE
  5
2CB
100
AcDbEntity
100
AcDbLine
  8
halter
 62
256
370
-1
  6
ByLayer
 10
158.9111333863200741
 20
-7.2185393834192855
 30
0.0
 11
159.0508144026899515
 21
-2.7738173794739329
 31
0.0
  0
LINE
  5
2CC
100
AcDbEntity
100
AcDbLine
  8
halter
 62
256
370
-1
  6
ByLayer
 10
120.8665196512587414
 20
-97.0375413301052419
 30
0.0
 11
121.620744366344951
 21
-97.6264444949850656
 31
0.0
  0
LINE
  5
2CD
100
AcDbEntity
100
AcDbLine
  8
halter
 62
256
370
-1
  6
ByLayer
 10
120.8665196512579598
 20
97.0375413301062082
 30
0.0
 11
121.620744366344951
 21
97.6264444949849235
 31
0.0
  0
ARC
  5
2CE
100
AcDbEntity
  8
halter
 62
256
370
-1
  6
ByLayer
100
AcDbCircle
 10
-0.0000000000000169
 20
-0.0000000000000293
 30
0.0
 40
155.0
100
AcDbArc
 50
38.759197307057434
 51
321.2408026929430775
  0
CIRCLE
  5
2CF
100
AcDbEntity
100
AcDbCircle
  8
platte
 62
256
370
-1
  6
ByLayer
 10
173.2380986513505263
 20
0.0000000000000018
 30
0.0
 40
1.5374999999999999
  0
CIRCLE
  5
2D0
100
AcDbEntity
100
AcDbCircle
  8
platte
 62
256
370
-1
  6
ByLayer
 10
0.0000000000000073
 20
-0.0000000000000759
 30
0.0
 40
59.9999999999999929
  0
LINE
  5
2D1
100
AcDbEntity
100
AcDbLine
  8
zahn
 62
256
370
-1
  6
ByLayer
 10
254.0665399332885954
 20
8.249834492008743
 30
0.0
 11
254.0665399332885954
 21
11.7501655079912499
 31
0.0
  0
LINE
  5
2D2
100
AcDbEntity
100
AcDbLine
  8
zahn
 62
256
370
-1
  6
ByLayer
 10
254.0665399332885954
 20
11.7501655079912499
 30
0.0
 11
254.1010269119369696
 21
11.756107920684256
 31
0.0
  0
LINE
  5
2D3
100
AcDbEntity
100
AcDbLine
  8
zahn
 62
256
370
-1
  6
ByLayer
 10
254.1010269119369696
 20
11.756107920684256
 30
0.0
 11
254.2031669946705961
 21
11.7803573579512069
 31
0.0
  0
LINE
  5
2D4
100
AcDbEntity
100
AcDbLine
  8
zahn
 62
256
370
-1
  6
ByLayer
 10
254.2031669946705961
 20
11.7803573579512069
 30
0.0
 11
254.3702231298256038
 21
11.8323651930503591
 31
0.0
  0
LINE
  5
2D5
100
AcDbEntity
100
AcDbLine
  8
zahn
 62
256
370
-1
  6
ByLayer
 10
254.3702231298256038
 20
11.8323651930503591
 30
0.0
 11
254.5984713023206041
 21
11.9212653740297529
 31
0.0
  0
LINE
  5
2D6
100
AcDbEntity
100
AcDbLine
  8
zahn
 62
256
370
-1
  6
ByLayer
 10
254.5984713023206041
 20
11.9212653740297529
 30
0.0
 11
254.883233228577069
 21
12.055782981740947
 31
0.0
  0
LINE
  5
2D7
100
AcDbEntity
100
AcDbLine
  8
zahn
 62
256
370
-1
  6
ByLayer
 10
254.883233228577069
 20
12.055782981740947
 30
0.0
 11
255.2189169808725637
 21
12.2441459254889402
 31
0.0
  0
LINE
  5
2D8
100
AcDbEntity
100
AcDbLine
  8
zahn
 62
256
370
-1
  6
ByLayer
 10
255.2189169808725637
 20
12.2441459254889402
 30
0.0
 11
255.5990652552000029
 21
12.4940004354495979
 31
0.0
  0
LINE
  5
2D9
100
AcDbEntity
100
AcDbLine
  8
zahn
 62
256
370
-1
  6
ByLayer
 10
255.5990652552000029
 20
12.4940004354495979
 30
0.0
 11
256.0164109412054358
 21
12.8123309856690959
 31
0.0
  0
LINE
  5
2DA
100
AcDbEntity
100
AcDbLine
  8
zahn
 62
256
370
-1
  6
ByLayer
 10
256.0164109412054358
 20
12.8123309856690959
 30
0.0
 11
256.4629396038239975
 21
13.2053852519289894
 31
0.0
  0
LINE
  5
2DB
100
AcDbEntity
100
AcDbLine
  8
zahn
 62
256
370
-1
  6
ByLayer
 10
256.4629396038239975
 20
13.2053852519289894
 30
0.0
 11
256.9299584364644033
 21
13.678604675105495
 31
0.0
  0
LINE
  5
2DC
100
AcDbEntity
100
AcDbLine
  8
zahn
 62
256
370
-1
  6
ByLayer
 10
252.408791332738474
 20
16.8521910846445024
 30
0.0
 11
252.4401847471019664
 21
16.8676545092365018
 31
0.0
  0
LINE
  5
2DD
100
AcDbEntity
100
AcDbLine
  8
zahn
 62
256
370
-1
  6
ByLayer
 10
252.4401847471019664
 20
16.8676545092365018
 30
0.0
 11
252.537071271458899
 21
16.9080727366629979
 31
0.0
  0
LINE
  5
2DE
100
AcDbEntity
100
AcDbLine
  8
zahn
 62
256
370
-1
  6
ByLayer
 10
252.537071271458899
 20
16.9080727366629979
 30
0.0
 11
252.7027919622554464
 21
16.9641906467770021
 31
0.0
  0
LINE
  5
2DF
100
AcDbEntity
100
AcDbLine
  8
zahn
 62
256
370
-1
  6
ByLayer
 10
252.7027919622554464
 20
16.9641906467770021
 30
0.0
 11
252.939702828065947
 21
17.0264297992420026
 31
0.0
  0
LINE
  5
2E0
100
AcDbEntity
100
AcDbLine
  8
zahn
 62
256
370
-1
  6
ByLayer
 10
252.939702828065947
 20
17.0264297992420026
 30
0.0
 11
253.2491475317249296
 21
17.0849816292114944
 31
0.0
  0
LINE
  5
2E1
100
AcDbEntity
100
AcDbLine
  8
zahn
 62
256
370
-1
  6
ByLayer
 10
253.2491475317249296
 20
17.0849816292114944
 30
0.0
 11
253.6314383525145786
 21
17.1299027656360039
 31
0.0
  0
LINE
  5
2E2
100
AcDbEntity
100
AcDbLine
  8
zahn
 62
256
370
-1
  6
ByLayer
 10
253.6314383525145786
 20
17.1299027656360039
 30
0.0
 11
254.0858455629780792
 21
17.1512117702829983
 31
0.0
  0
LINE
  5
2E3
100
AcDbEntity
100
AcDbLine
  8
zahn
 62
256
370
-1
  6
ByLayer
 10
254.0858455629780792
 20
17.1512117702829983
 30
0.0
 11
254.6105953182629946
 21
17.1389865846879985
 31
0.0
  0
LINE
  5
2E4
100
AcDbEntity
100
AcDbLine
  8
zahn
 62
256
370
-1
  6
ByLayer
 10
254.6105953182629946
 20
17.1389865846879985
 30
0.0
 11
255.202876095886495
 21
17.0834619661750047
 31
0.0
  0
LINE
  5
2E5
100
AcDbEntity
100
AcDbLine
  8
zahn
 62
256
370
-1
  6
ByLayer
 10
255.202876095886495
 20
17.0834619661750047
 30
0.0
 11
255.8588536662044817
 21
16.9751261931085011
 31
0.0
  0
LINE
  5
2E6
100
AcDbEntity
100
AcDbLine
  8
zahn
 62
256
370
-1
  6
ByLayer
 10
256.9299584364644033
 20
13.678604675105495
 30
0.0
 11
256.9299584360234121
 21
13.6786046750110089
 31
0.0
  0
LINE
  5
2E7
100
AcDbEntity
100
AcDbLine
  8
zahn
 62
256
370
-1
  6
ByLayer
 10
255.8588536662044817
 20
16.9751261931085011
 30
0.0
 11
255.8588536657949817
 21
16.9751261929195003
 31
0.0
  0
LINE
  5
2E8
100
AcDbEntity
100
AcDbLine
  8
zahn
 62
256
370
-1
  6
ByLayer
 10
256.9299584360234121
 20
13.6786046750110089
 30
0.0
 11
255.8588536657949817
 21
16.9751261929195003
 31
0.0
  0
LINE
  5
2E9
100
AcDbEntity
100
AcDbLine
  8
zahn
 62
256
370
-1
  6
ByLayer
 10
252.408791332738474
 20
16.8521910846445024
 30
0.0
 11
250.3513483834110502
 21
19.6840183624974969
 31
0.0
  0
LINE
  5
2EA
100
AcDbEntity
100
AcDbLine
  8
zahn
 62
256
370
-1
  6
ByLayer
 10
250.3513483834110502
 20
19.6840183624974969
 30
0.0
 11
250.3757560726680822
 21
19.7090968128174993
 31
0.0
  0
LINE
  5
2EB
100
AcDbEntity
100
AcDbLine
  8
zahn
 62
256
370
-1
  6
ByLayer
 10
250.3757560726680822
 20
19.7090968128174993
 30
0.0
 11
250.4441356738213926
 21
19.7887514539464959
 31
0.0
  0
LINE
  5
2EC
100
AcDbEntity
100
AcDbLine
  8
zahn
 62
256
370
-1
  6
ByLayer
 10
250.4441356738213926
 20
19.7887514539464959
 30
0.0
 11
250.5487174876859626
 21
19.9290198089530008
 31
0.0
  0
LINE
  5
2ED
100
AcDbEntity
100
AcDbLine
  8
zahn
 62
256
370
-1
  6
ByLayer
 10
250.5487174876859626
 20
19.9290198089530008
 30
0.0
 11
250.6811199228825444
 21
20.1351024758305002
 31
0.0
  0
LINE
  5
2EE
100
AcDbEntity
100
AcDbLine
  8
zahn
 62
256
370
-1
  6
ByLayer
 10
250.6811199228825444
 20
20.1351024758305002
 30
0.0
 11
250.8324296945864944
 21
20.4113083671415012
 31
0.0
  0
LINE
  5
2EF
100
AcDbEntity
100
AcDbLine
  8
zahn
 62
256
370
-1
  6
ByLayer
 10
250.8324296945864944
 20
20.4113083671415012
 30
0.0
 11
250.9932865945245339
 21
20.7610071487974999
 31
0.0
  0
LINE
  5
2F0
100
AcDbEntity
100
AcDbLine
  8
zahn
 62
256
370
-1
  6
ByLayer
 10
250.9932865945245339
 20
20.7610071487974999
 30
0.0
 11
251.153972212645499
 21
21.1865892428080045
 31
0.0
  0
LINE
  5
2F1
100
AcDbEntity
100
AcDbLine
  8
zahn
 62
256
370
-1
  6
ByLayer
 10
251.153972212645499
 20
21.1865892428080045
 30
0.0
 11
251.3045019623865528
 21
21.6894337071085026
 31
0.0
  0
LINE
  5
2F2
100
AcDbEntity
100
AcDbLine
  8
zahn
 62
256
370
-1
  6
ByLayer
 10
251.3045019623865528
 20
21.6894337071085026
 30
0.0
 11
251.4347197378575629
 21
22.269884250861999
 31
0.0
  0
LINE
  5
2F3
100
AcDbEntity
100
AcDbLine
  8
zahn
 62
256
370
-1
  6
ByLayer
 10
251.4347197378575629
 20
22.269884250861999
 30
0.0
 11
251.5343945121194338
 21
22.9272335886294982
 31
0.0
  0
LINE
  5
2F4
100
AcDbEntity
100
AcDbLine
  8
zahn
 62
256
370
-1
  6
ByLayer
 10
246.011306202415426
 20
22.8372435803394964
 30
0.0
 11
246.027614835196573
 21
22.8682063395865001
 31
0.0
  0
LINE
  5
2F5
100
AcDbEntity
100
AcDbLine
  8
zahn
 62
256
370
-1
  6
ByLayer
 10
246.027614835196573
 20
22.8682063395865001
 30
0.0
 11
246.0822404419141094
 21
22.9578538426435017
 31
0.0
  0
LINE
  5
2F6
100
AcDbEntity
100
AcDbLine
  8
zahn
 62
256
370
-1
  6
ByLayer
 10
246.0822404419141094
 20
22.9578538426435017
 30
0.0
 11
246.1833260171654274
 21
23.1006623636665012
 31
0.0
  0
LINE
  5
2F7
100
AcDbEntity
100
AcDbLine
  8
zahn
 62
256
370
-1
  6
ByLayer
 10
246.1833260171654274
 20
23.1006623636665012
 30
0.0
 11
246.3384076778086182
 21
23.2902676087614999
 31
0.0
  0
LINE
  5
2F8
100
AcDbEntity
100
AcDbLine
  8
zahn
 62
256
370
-1
  6
ByLayer
 10
246.3384076778086182
 20
23.2902676087614999
 30
0.0
 11
246.5543377997476
 21
23.5195240674655039
 31
0.0
  0
LINE
  5
2F9
100
AcDbEntity
100
AcDbLine
  8
zahn
 62
256
370
-1
  6
ByLayer
 10
246.5543377997476
 20
23.5195240674655039
 30
0.0
 11
246.837213589038015
 21
23.7805709367969982
 31
0.0
  0
LINE
  5
2FA
100
AcDbEntity
100
AcDbLine
  8
zahn
 62
256
370
-1
  6
ByLayer
 10
246.837213589038015
 20
23.7805709367969982
 30
0.0
 11
247.1923116259889639
 21
24.0649041405250017
 31
0.0
  0
LINE
  5
2FB
100
AcDbEntity
100
AcDbLine
  8
zahn
 62
256
370
-1
  6
ByLayer
 10
247.1923116259889639
 20
24.0649041405250017
 30
0.0
 11
247.6240288796175264
 21
24.3634539249145021
 31
0.0
  0
LINE
  5
2FC
100
AcDbEntity
100
AcDbLine
  8
zahn
 62
256
370
-1
  6
ByLayer
 10
247.6240288796175264
 20
24.3634539249145021
 30
0.0
 11
248.1358306460549557
 21
24.6666674712250042
 31
0.0
  0
LINE
  5
2FD
100
AcDbEntity
100
AcDbLine
  8
zahn
 62
256
370
-1
  6
ByLayer
 10
248.1358306460549557
 20
24.6666674712250042
 30
0.0
 11
248.7302058180749782
 21
24.9645959314075014
 31
0.0
  0
LINE
  5
2FE
100
AcDbEntity
100
AcDbLine
  8
zahn
 62
256
370
-1
  6
ByLayer
 10
251.5343945121194338
 20
22.9272335886294982
 30
0.0
 11
251.5343945118045212
 21
22.9272335882830056
 31
0.0
  0
LINE
  5
2FF
100
AcDbEntity
100
AcDbLine
  8
zahn
 62
256
370
-1
  6
ByLayer
 10
248.7302058180749782
 20
24.9645959314075014
 30
0.0
 11
248.7302058178230482
 21
24.9645959309980014
 31
0.0
  0
LINE
  5
300
100
AcDbEntity
100
AcDbLine
  8
zahn
 62
256
370
-1
  6
ByLayer
 10
251.5343945118045212
 20
22.9272335882830056
 30
0.0
 11
248.7302058178230482
 21
24.9645959309980014
 31
0.0
  0
LINE
  5
301
100
AcDbEntity
100
AcDbLine
  8
zahn
 62
256
370
-1
  6
ByLayer
 10
246.011306202415426
 20
22.8372435803394964
 30
0.0
 11
242.6822935804675581
 21
23.9189053502170026
 31
0.0
  0
LINE
  5
302
100
AcDbEntity
100
AcDbLine
  8
zahn
 62
256
370
-1
  6
ByLayer
 10
242.6822935804675581
 20
23.9189053502170026
 30
0.0
 11
242.6872990726396893
 21
23.9535407224989996
 31
0.0
  0
LINE
  5
303
100
AcDbEntity
100
AcDbLine
  8
zahn
 62
256
370
-1
  6
ByLayer
 10
242.6872990726396893
 20
23.9535407224989996
 30
0.0
 11
242.6957995086866049
 21
24.058175201969501
 31
0.0
  0
LINE
  5
304
100
AcDbEntity
100
AcDbLine
  8
zahn
 62
256
370
-1
  6
ByLayer
 10
242.6957995086866049
 20
24.058175201969501
 30
0.0
 11
242.6979603029882355
 21
24.2331263327889985
 31
0.0
  0
LINE
  5
305
100
AcDbEntity
100
AcDbLine
  8
zahn
 62
256
370
-1
  6
ByLayer
 10
242.6979603029882355
 20
24.2331263327889985
 30
0.0
 11
242.68394377081313
 21
24.4776749113045042
 31
0.0
  0
LINE
  5
306
100
AcDbEntity
100
AcDbLine
  8
zahn
 62
256
370
-1
  6
ByLayer
 10
242.68394377081313
 20
24.4776749113045042
 30
0.0
 11
242.6440061980026712
 21
24.7900678236640033
 31
0.0
  0
LINE
  5
307
100
AcDbEntity
100
AcDbLine
  8
zahn
 62
256
370
-1
  6
ByLayer
 10
242.6440061980026712
 20
24.7900678236640033
 30
0.0
 11
242.5685943771189841
 21
25.1675293944475023
 31
0.0
  0
LINE
  5
308
100
AcDbEntity
100
AcDbLine
  8
zahn
 62
256
370
-1
  6
ByLayer
 10
242.5685943771189841
 20
25.1675293944475023
 30
0.0
 11
242.4484408944407505
 21
25.6062811775815007
 31
0.0
  0
LINE
  5
309
100
AcDbEntity
100
AcDbLine
  8
zahn
 62
256
370
-1
  6
ByLayer
 10
242.4484408944407505
 20
25.6062811775815007
 30
0.0
 11
242.2746574598202187
 21
26.1015700616470028
 31
0.0
  0
LINE
  5
30A
100
AcDbEntity
100
AcDbLine
  8
zahn
 62
256
370
-1
  6
ByLayer
 10
242.2746574598202187
 20
26.1015700616470028
 30
0.0
 11
242.0388255838649911
 21
26.6477045039515019
 31
0.0
  0
LINE
  5
30B
100
AcDbEntity
100
AcDbLine
  8
zahn
 62
256
370
-1
  6
ByLayer
 10
242.0388255838649911
 20
26.6477045039515019
 30
0.0
 11
241.7330839237844202
 21
27.2380986517914998
 31
0.0
  0
LINE
  5
30C
100
AcDbEntity
100
AcDbLine
  8
zahn
 62
256
370
-1
  6
ByLayer
 10
237.3177064195324419
 20
23.9189053502170026
 30
0.0
 11
237.3127009273603107
 21
23.9535407224990031
 31
0.0
  0
LINE
  5
30D
100
AcDbEntity
100
AcDbLine
  8
zahn
 62
256
370
-1
  6
ByLayer
 10
237.3127009273603107
 20
23.9535407224990031
 30
0.0
 11
237.3042004913133951
 21
24.0581752019695045
 31
0.0
  0
LINE
  5
30E
100
AcDbEntity
100
AcDbLine
  8
zahn
 62
256
370
-1
  6
ByLayer
 10
237.3042004913133951
 20
24.0581752019695045
 30
0.0
 11
237.3020396970117645
 21
24.2331263327889985
 31
0.0
  0
LINE
  5
30F
100
AcDbEntity
100
AcDbLine
  8
zahn
 62
256
370
-1
  6
ByLayer
 10
237.3020396970117645
 20
24.2331263327889985
 30
0.0
 11
237.31605622918687
 21
24.4776749113045042
 31
0.0
  0
LINE
  5
310
100
AcDbEntity
100
AcDbLine
  8
zahn
 62
256
370
-1
  6
ByLayer
 10
237.31605622918687
 20
24.4776749113045042
 30
0.0
 11
237.3559938019973288
 21
24.7900678236640033
 31
0.0
  0
LINE
  5
311
100
AcDbEntity
100
AcDbLine
  8
zahn
 62
256
370
-1
  6
ByLayer
 10
237.3559938019973288
 20
24.7900678236640033
 30
0.0
 11
237.4314056228810159
 21
25.1675293944475023
 31
0.0
  0
LINE
  5
312
100
AcDbEntity
100
AcDbLine
  8
zahn
 62
256
370
-1
  6
ByLayer
 10
237.4314056228810159
 20
25.1675293944475023
 30
0.0
 11
237.5515591055592495
 21
25.6062811775815007
 31
0.0
  0
LINE
  5
313
100
AcDbEntity
100
AcDbLine
  8
zahn
 62
256
370
-1
  6
ByLayer
 10
237.5515591055592495
 20
25.6062811775815007
 30
0.0
 11
237.7253425401797813
 21
26.1015700616470063
 31
0.0
  0
LINE
  5
314
100
AcDbEntity
100
AcDbLine
  8
zahn
 62
256
370
-1
  6
ByLayer
 10
237.7253425401797813
 20
26.1015700616470063
 30
0.0
 11
237.9611744161350089
 21
26.6477045039515019
 31
0.0
  0
LINE
  5
315
100
AcDbEntity
100
AcDbLine
  8
zahn
 62
256
370
-1
  6
ByLayer
 10
237.9611744161350089
 20
26.6477045039515019
 30
0.0
 11
238.2669160762155798
 21
27.2380986517914998
 31
0.0
  0
LINE
  5
316
100
AcDbEntity
100
AcDbLine
  8
zahn
 62
256
370
-1
  6
ByLayer
 10
241.7330839237844202
 20
27.2380986517914998
 30
0.0
 11
241.7330839237404234
 21
27.238098651350505
 31
0.0
  0
LINE
  5
317
100
AcDbEntity
100
AcDbLine
  8
zahn
 62
256
370
-1
  6
ByLayer
 10
238.2669160762155798
 20
27.2380986517914998
 30
0.0
 11
238.2669160762595766
 21
27.238098651350505
 31
0.0
  0
LINE
  5
318
100
AcDbEntity
100
AcDbLine
  8
zahn
 62
256
370
-1
  6
ByLayer
 10
241.7330839237404234
 20
27.238098651350505
 30
0.0
 11
238.2669160762595766
 21
27.238098651350505
 31
0.0
  0
LINE
  5
319
100
AcDbEntity
100
AcDbLine
  8
zahn
 62
256
370
-1
  6
ByLayer
 10
237.3177064195324419
 20
23.9189053502170026
 30
0.0
 11
233.988693797584574
 21
22.8372435803395035
 31
0.0
  0
LINE
  5
31A
100
AcDbEntity
100
AcDbLine
  8
zahn
 62
256
370
-1
  6
ByLayer
 10
233.988693797584574
 20
22.8372435803395035
 30
0.0
 11
233.972385164803427
 21
22.8682063395865001
 31
0.0
  0
LINE
  5
31B
100
AcDbEntity
100
AcDbLine
  8
zahn
 62
256
370
-1
  6
ByLayer
 10
233.972385164803427
 20
22.8682063395865001
 30
0.0
 11
233.9177595580858906
 21
22.9578538426435017
 31
0.0
  0
LINE
  5
31C
100
AcDbEntity
100
AcDbLine
  8
zahn
 62
256
370
-1
  6
ByLayer
 10
233.9177595580858906
 20
22.9578538426435017
 30
0.0
 11
233.8166739828345726
 21
23.1006623636665012
 31
0.0
  0
LINE
  5
31D
100
AcDbEntity
100
AcDbLine
  8
zahn
 62
256
370
-1
  6
ByLayer
 10
233.8166739828345726
 20
23.1006623636665012
 30
0.0
 11
233.6615923221913818
 21
23.2902676087614964
 31
0.0
  0
LINE
  5
31E
100
AcDbEntity
100
AcDbLine
  8
zahn
 62
256
370
-1
  6
ByLayer
 10
233.6615923221913818
 20
23.2902676087614964
 30
0.0
 11
233.4456622002524
 21
23.5195240674655039
 31
0.0
  0
LINE
  5
31F
100
AcDbEntity
100
AcDbLine
  8
zahn
 62
256
370
-1
  6
ByLayer
 10
233.4456622002524
 20
23.5195240674655039
 30
0.0
 11
233.162786410961985
 21
23.7805709367969982
 31
0.0
  0
LINE
  5
320
100
AcDbEntity
100
AcDbLine
  8
zahn
 62
256
370
-1
  6
ByLayer
 10
233.162786410961985
 20
23.7805709367969982
 30
0.0
 11
232.8076883740110361
 21
24.0649041405250017
 31
0.0
  0
LINE
  5
321
100
AcDbEntity
100
AcDbLine
  8
zahn
 62
256
370
-1
  6
ByLayer
 10
232.8076883740110361
 20
24.0649041405250017
 30
0.0
 11
232.3759711203824736
 21
24.3634539249145057
 31
0.0
  0
LINE
  5
322
100
AcDbEntity
100
AcDbLine
  8
zahn
 62
256
370
-1
  6
ByLayer
 10
232.3759711203824736
 20
24.3634539249145057
 30
0.0
 11
231.8641693539450443
 21
24.6666674712249971
 31
0.0
  0
LINE
  5
323
100
AcDbEntity
100
AcDbLine
  8
zahn
 62
256
370
-1
  6
ByLayer
 10
231.8641693539450443
 20
24.6666674712249971
 30
0.0
 11
231.2697941819250218
 21
24.9645959314075014
 31
0.0
  0
LINE
  5
324
100
AcDbEntity
100
AcDbLine
  8
zahn
 62
256
370
-1
  6
ByLayer
 10
229.6486516165889498
 20
19.6840183624975005
 30
0.0
 11
229.6242439273319178
 21
19.7090968128175028
 31
0.0
  0
LINE
  5
325
100
AcDbEntity
100
AcDbLine
  8
zahn
 62
256
370
-1
  6
ByLayer
 10
229.6242439273319178
 20
19.7090968128175028
 30
0.0
 11
229.5558643261786074
 21
19.7887514539464995
 31
0.0
  0
LINE
  5
326
100
AcDbEntity
100
AcDbLine
  8
zahn
 62
256
370
-1
  6
ByLayer
 10
229.5558643261786074
 20
19.7887514539464995
 30
0.0
 11
229.4512825123140374
 21
19.9290198089530008
 31
0.0
  0
LINE
  5
327
100
AcDbEntity
100
AcDbLine
  8
zahn
 62
256
370
-1
  6
ByLayer
 10
229.4512825123140374
 20
19.9290198089530008
 30
0.0
 11
229.3188800771174556
 21
20.1351024758305002
 31
0.0
  0
LINE
  5
328
100
AcDbEntity
100
AcDbLine
  8
zahn
 62
256
370
-1
  6
ByLayer
 10
229.3188800771174556
 20
20.1351024758305002
 30
0.0
 11
229.1675703054135056
 21
20.4113083671415012
 31
0.0
  0
LINE
  5
329
100
AcDbEntity
100
AcDbLine
  8
zahn
 62
256
370
-1
  6
ByLayer
 10
229.1675703054135056
 20
20.4113083671415012
 30
0.0
 11
229.0067134054754661
 21
20.7610071487975034
 31
0.0
  0
LINE
  5
32A
100
AcDbEntity
100
AcDbLine
  8
zahn
 62
256
370
-1
  6
ByLayer
 10
229.0067134054754661
 20
20.7610071487975034
 30
0.0
 11
228.846027787354501
 21
21.1865892428079974
 31
0.0
  0
LINE
  5
32B
100
AcDbEntity
100
AcDbLine
  8
zahn
 62
256
370
-1
  6
ByLayer
 10
228.846027787354501
 20
21.1865892428079974
 30
0.0
 11
228.6954980376134472
 21
21.689433707108499
 31
0.0
  0
LINE
  5
32C
100
AcDbEntity
100
AcDbLine
  8
zahn
 62
256
370
-1
  6
ByLayer
 10
228.6954980376134472
 20
21.689433707108499
 30
0.0
 11
228.5652802621424371
 21
22.269884250861999
 31
0.0
  0
LINE
  5
32D
100
AcDbEntity
100
AcDbLine
  8
zahn
 62
256
370
-1
  6
ByLayer
 10
228.5652802621424371
 20
22.269884250861999
 30
0.0
 11
228.4656054878805662
 21
22.9272335886294982
 31
0.0
  0
LINE
  5
32E
100
AcDbEntity
100
AcDbLine
  8
zahn
 62
256
370
-1
  6
ByLayer
 10
231.2697941819250218
 20
24.9645959314075014
 30
0.0
 11
231.2697941821769518
 21
24.964595930998005
 31
0.0
  0
LINE
  5
32F
100
AcDbEntity
100
AcDbLine
  8
zahn
 62
256
370
-1
  6
ByLayer
 10
228.4656054878805662
 20
22.9272335886294982
 30
0.0
 11
228.4656054881954788
 21
22.9272335882830021
 31
0.0
  0
LINE
  5
330
100
AcDbEntity
100
AcDbLine
  8
zahn
 62
256
370
-1
  6
ByLayer
 10
231.2697941821769518
 20
24.964595930998005
 30
0.0
 11
228.4656054881954788
 21
22.9272335882830021
 31
0.0
  0
LINE
  5
331
100
AcDbEntity
100
AcDbLine
  8
zahn
 62
256
370
-1
  6
ByLayer
 10
229.6486516165889498
 20
19.6840183624975005
 30
0.0
 11
227.591208667261526
 21
16.8521910846444989
 31
0.0
  0
LINE
  5
332
100
AcDbEntity
100
AcDbLine
  8
zahn
 62
256
370
-1
  6
ByLayer
 10
227.591208667261526
 20
16.8521910846444989
 30
0.0
 11
227.5598152528980336
 21
16.8676545092365018
 31
0.0
  0
LINE
  5
333
100
AcDbEntity
100
AcDbLine
  8
zahn
 62
256
370
-1
  6
ByLayer
 10
227.5598152528980336
 20
16.8676545092365018
 30
0.0
 11
227.462928728541101
 21
16.9080727366629944
 31
0.0
  0
LINE
  5
334
100
AcDbEntity
100
AcDbLine
  8
zahn
 62
256
370
-1
  6
ByLayer
 10
227.462928728541101
 20
16.9080727366629944
 30
0.0
 11
227.2972080377445536
 21
16.9641906467770021
 31
0.0
  0
LINE
  5
335
100
AcDbEntity
100
AcDbLine
  8
zahn
 62
256
370
-1
  6
ByLayer
 10
227.2972080377445536
 20
16.9641906467770021
 30
0.0
 11
227.060297171934053
 21
17.0264297992419991
 31
0.0
  0
LINE
  5
336
100
AcDbEntity
100
AcDbLine
  8
zahn
 62
256
370
-1
  6
ByLayer
 10
227.060297171934053
 20
17.0264297992419991
 30
0.0
 11
226.7508524682750704
 21
17.084981629211498
 31
0.0
  0
LINE
  5
337
100
AcDbEntity
100
AcDbLine
  8
zahn
 62
256
370
-1
  6
ByLayer
 10
226.7508524682750704
 20
17.084981629211498
 30
0.0
 11
226.3685616474854214
 21
17.1299027656360039
 31
0.0
  0
LINE
  5
338
100
AcDbEntity
100
AcDbLine
  8
zahn
 62
256
370
-1
  6
ByLayer
 10
226.3685616474854214
 20
17.1299027656360039
 30
0.0
 11
225.9141544370219208
 21
17.1512117702829983
 31
0.0
  0
LINE
  5
339
100
AcDbEntity
100
AcDbLine
  8
zahn
 62
256
370
-1
  6
ByLayer
 10
225.9141544370219208
 20
17.1512117702829983
 30
0.0
 11
225.3894046817370054
 21
17.138986584687995
 31
0.0
  0
LINE
  5
33A
100
AcDbEntity
100
AcDbLine
  8
zahn
 62
256
370
-1
  6
ByLayer
 10
225.3894046817370054
 20
17.138986584687995
 30
0.0
 11
224.797123904113505
 21
17.0834619661750011
 31
0.0
  0
LINE
  5
33B
100
AcDbEntity
100
AcDbLine
  8
zahn
 62
256
370
-1
  6
ByLayer
 10
224.797123904113505
 20
17.0834619661750011
 30
0.0
 11
224.1411463337955183
 21
16.9751261931085011
 31
0.0
  0
LINE
  5
33C
100
AcDbEntity
100
AcDbLine
  8
zahn
 62
256
370
-1
  6
ByLayer
 10
225.9334600667114046
 20
11.7501655079912499
 30
0.0
 11
225.8989730880630304
 21
11.756107920684256
 31
0.0
  0
LINE
  5
33D
100
AcDbEntity
100
AcDbLine
  8
zahn
 62
256
370
-1
  6
ByLayer
 10
225.8989730880630304
 20
11.756107920684256
 30
0.0
 11
225.7968330053294039
 21
11.7803573579512086
 31
0.0
  0
LINE
  5
33E
100
AcDbEntity
100
AcDbLine
  8
zahn
 62
256
370
-1
  6
ByLayer
 10
225.7968330053294039
 20
11.7803573579512086
 30
0.0
 11
225.6297768701743962
 21
11.8323651930503608
 31
0.0
  0
LINE
  5
33F
100
AcDbEntity
100
AcDbLine
  8
zahn
 62
256
370
-1
  6
ByLayer
 10
225.6297768701743962
 20
11.8323651930503608
 30
0.0
 11
225.4015286976793959
 21
11.9212653740297547
 31
0.0
  0
LINE
  5
340
100
AcDbEntity
100
AcDbLine
  8
zahn
 62
256
370
-1
  6
ByLayer
 10
225.4015286976793959
 20
11.9212653740297547
 30
0.0
 11
225.116766771422931
 21
12.0557829817409488
 31
0.0
  0
LINE
  5
341
100
AcDbEntity
100
AcDbLine
  8
zahn
 62
256
370
-1
  6
ByLayer
 10
225.116766771422931
 20
12.0557829817409488
 30
0.0
 11
224.7810830191274363
 21
12.2441459254889402
 31
0.0
  0
LINE
  5
342
100
AcDbEntity
100
AcDbLine
  8
zahn
 62
256
370
-1
  6
ByLayer
 10
224.7810830191274363
 20
12.2441459254889402
 30
0.0
 11
224.4009347447999971
 21
12.4940004354495962
 31
0.0
  0
LINE
  5
343
100
AcDbEntity
100
AcDbLine
  8
zahn
 62
256
370
-1
  6
ByLayer
 10
224.4009347447999971
 20
12.4940004354495962
 30
0.0
 11
223.9835890587945642
 21
12.8123309856690994
 31
0.0
  0
LINE
  5
344
100
AcDbEntity
100
AcDbLine
  8
zahn
 62
256
370
-1
  6
ByLayer
 10
223.9835890587945642
 20
12.8123309856690994
 30
0.0
 11
223.5370603961760025
 21
13.2053852519289912
 31
0.0
  0
LINE
  5
345
100
AcDbEntity
100
AcDbLine
  8
zahn
 62
256
370
-1
  6
ByLayer
 10
223.5370603961760025
 20
13.2053852519289912
 30
0.0
 11
223.0700415635355967
 21
13.678604675105495
 31
0.0
  0
LINE
  5
346
100
AcDbEntity
100
AcDbLine
  8
zahn
 62
256
370
-1
  6
ByLayer
 10
224.1411463337955183
 20
16.9751261931085011
 30
0.0
 11
224.1411463342050183
 21
16.9751261929194932
 31
0.0
  0
LINE
  5
347
100
AcDbEntity
100
AcDbLine
  8
zahn
 62
256
370
-1
  6
ByLayer
 10
223.0700415635355967
 20
13.678604675105495
 30
0.0
 11
223.0700415639765879
 21
13.6786046750110053
 31
0.0
  0
LINE
  5
348
100
AcDbEntity
100
AcDbLine
  8
zahn
 62
256
370
-1
  6
ByLayer
 10
224.1411463342050183
 20
16.9751261929194932
 30
0.0
 11
223.0700415639765879
 21
13.6786046750110053
 31
0.0
  0
LINE
  5
349
100
AcDbEntity
100
AcDbLine
  8
zahn
 62
256
370
-1
  6
ByLayer
 10
225.9334600667114046
 20
11.7501655079912499
 30
0.0
 11
225.9334600667114046
 21
8.2498344920087661
 31
0.0
  0
LINE
  5
34A
100
AcDbEntity
100
AcDbLine
  8
zahn
 62
256
370
-1
  6
ByLayer
 10
225.9334600667114046
 20
8.2498344920087661
 30
0.0
 11
225.8989730880630304
 21
8.2438920793157475
 31
0.0
  0
LINE
  5
34B
100
AcDbEntity
100
AcDbLine
  8
zahn
 62
256
370
-1
  6
ByLayer
 10
225.8989730880630304
 20
8.2438920793157475
 30
0.0
 11
225.7968330053294039
 21
8.2196426420487949
 31
0.0
  0
LINE
  5
34C
100
AcDbEntity
100
AcDbLine
  8
zahn
 62
256
370
-1
  6
ByLayer
 10
225.7968330053294039
 20
8.2196426420487949
 30
0.0
 11
225.6297768701743962
 21
8.1676348069496569
 31
0.0
  0
LINE
  5
34D
100
AcDbEntity
100
AcDbLine
  8
zahn
 62
256
370
-1
  6
ByLayer
 10
225.6297768701743962
 20
8.1676348069496569
 30
0.0
 11
225.4015286976793959
 21
8.0787346259702488
 31
0.0
  0
LINE
  5
34E
100
AcDbEntity
100
AcDbLine
  8
zahn
 62
256
370
-1
  6
ByLayer
 10
225.4015286976793959
 20
8.0787346259702488
 30
0.0
 11
225.116766771422931
 21
7.9442170182590548
 31
0.0
  0
LINE
  5
34F
100
AcDbEntity
100
AcDbLine
  8
zahn
 62
256
370
-1
  6
ByLayer
 10
225.116766771422931
 20
7.9442170182590548
 30
0.0
 11
224.7810830191274363
 21
7.7558540745110633
 31
0.0
  0
LINE
  5
350
100
AcDbEntity
100
AcDbLine
  8
zahn
 62
256
370
-1
  6
ByLayer
 10
224.7810830191274363
 20
7.7558540745110633
 30
0.0
 11
224.4009347447999971
 21
7.505999564553556
 31
0.0
  0
LINE
  5
351
100
AcDbEntity
100
AcDbLine
  8
zahn
 62
256
370
-1
  6
ByLayer
 10
224.4009347447999971
 20
7.505999564553556
 30
0.0
 11
223.9835890587945642
 21
7.1876690143309041
 31
0.0
  0
LINE
  5
352
100
AcDbEntity
100
AcDbLine
  8
zahn
 62
256
370
-1
  6
ByLayer
 10
223.9835890587945642
 20
7.1876690143309041
 30
0.0
 11
223.5370603961760025
 21
6.7946147480710142
 31
0.0
  0
LINE
  5
353
100
AcDbEntity
100
AcDbLine
  8
zahn
 62
256
370
-1
  6
ByLayer
 10
223.5370603961760025
 20
6.7946147480710142
 30
0.0
 11
223.0700415635355967
 21
6.3213953248945085
 31
0.0
  0
LINE
  5
354
100
AcDbEntity
100
AcDbLine
  8
zahn
 62
256
370
-1
  6
ByLayer
 10
227.591208667261526
 20
3.1478089153555056
 30
0.0
 11
227.5598152528980336
 21
3.1323454907635071
 31
0.0
  0
LINE
  5
355
100
AcDbEntity
100
AcDbLine
  8
zahn
 62
256
370
-1
  6
ByLayer
 10
227.5598152528980336
 20
3.1323454907635071
 30
0.0
 11
227.462928728541101
 21
3.0919272633370145
 31
0.0
  0
LINE
  5
356
100
AcDbEntity
100
AcDbLine
  8
zahn
 62
256
370
-1
  6
ByLayer
 10
227.462928728541101
 20
3.0919272633370145
 30
0.0
 11
227.2972080377445536
 21
3.0358093532230086
 31
0.0
  0
LINE
  5
357
100
AcDbEntity
100
AcDbLine
  8
zahn
 62
256
370
-1
  6
ByLayer
 10
227.2972080377445536
 20
3.0358093532230086
 30
0.0
 11
227.060297171934053
 21
2.9735702007580045
 31
0.0
  0
LINE
  5
358
100
AcDbEntity
100
AcDbLine
  8
zahn
 62
256
370
-1
  6
ByLayer
 10
227.060297171934053
 20
2.9735702007580045
 30
0.0
 11
226.7508524682750704
 21
2.91501837078851
 31
0.0
  0
LINE
  5
359
100
AcDbEntity
100
AcDbLine
  8
zahn
 62
256
370
-1
  6
ByLayer
 10
226.7508524682750704
 20
2.91501837078851
 30
0.0
 11
226.3685616474854214
 21
2.8700972343639988
 31
0.0
  0
LINE
  5
35A
100
AcDbEntity
100
AcDbLine
  8
zahn
 62
256
370
-1
  6
ByLayer
 10
226.3685616474854214
 20
2.8700972343639988
 30
0.0
 11
225.9141544370219208
 21
2.848788229717008
 31
0.0
  0
LINE
  5
35B
100
AcDbEntity
100
AcDbLine
  8
zahn
 62
256
370
-1
  6
ByLayer
 10
225.9141544370219208
 20
2.848788229717008
 30
0.0
 11
225.3894046817370054
 21
2.8610134153120095
 31
0.0
  0
LINE
  5
35C
100
AcDbEntity
100
AcDbLine
  8
zahn
 62
256
370
-1
  6
ByLayer
 10
225.3894046817370054
 20
2.8610134153120095
 30
0.0
 11
224.797123904113505
 21
2.9165380338250024
 31
0.0
  0
LINE
  5
35D
100
AcDbEntity
100
AcDbLine
  8
zahn
 62
256
370
-1
  6
ByLayer
 10
224.797123904113505
 20
2.9165380338250024
 30
0.0
 11
224.1411463337955183
 21
3.0248738068915015
 31
0.0
  0
LINE
  5
35E
100
AcDbEntity
100
AcDbLine
  8
zahn
 62
256
370
-1
  6
ByLayer
 10
223.0700415635355967
 20
6.3213953248945085
 30
0.0
 11
223.0700415639765879
 21
6.3213953249889983
 31
0.0
  0
LINE
  5
35F
100
AcDbEntity
100
AcDbLine
  8
zahn
 62
256
370
-1
  6
ByLayer
 10
224.1411463337955183
 20
3.0248738068915015
 30
0.0
 11
224.1411463342050183
 21
3.0248738070805112
 31
0.0
  0
LINE
  5
360
100
AcDbEntity
100
AcDbLine
  8
zahn
 62
256
370
-1
  6
ByLayer
 10
223.0700415639765879
 20
6.3213953249889983
 30
0.0
 11
224.1411463342050183
 21
3.0248738070805112
 31
0.0
  0
LINE
  5
361
100
AcDbEntity
100
AcDbLine
  8
zahn
 62
256
370
-1
  6
ByLayer
 10
227.591208667261526
 20
3.1478089153555056
 30
0.0
 11
229.6486516165889498
 21
0.3159816375025084
 31
0.0
  0
LINE
  5
362
100
AcDbEntity
100
AcDbLine
  8
zahn
 62
256
370
-1
  6
ByLayer
 10
229.6486516165889498
 20
0.3159816375025084
 30
0.0
 11
229.6242439273319178
 21
0.2909031871825043
 31
0.0
  0
LINE
  5
363
100
AcDbEntity
100
AcDbLine
  8
zahn
 62
256
370
-1
  6
ByLayer
 10
229.6242439273319178
 20
0.2909031871825043
 30
0.0
 11
229.5558643261786074
 21
0.2112485460535094
 31
0.0
  0
LINE
  5
364
100
AcDbEntity
100
AcDbLine
  8
zahn
 62
256
370
-1
  6
ByLayer
 10
229.5558643261786074
 20
0.2112485460535094
 30
0.0
 11
229.4512825123140374
 21
0.0709801910470045
 31
0.0
  0
LINE
  5
365
100
AcDbEntity
100
AcDbLine
  8
zahn
 62
256
370
-1
  6
ByLayer
 10
229.4512825123140374
 20
0.0709801910470045
 30
0.0
 11
229.3188800771174556
 21
-0.1351024758304913
 31
0.0
  0
LINE
  5
366
100
AcDbEntity
100
AcDbLine
  8
zahn
 62
256
370
-1
  6
ByLayer
 10
229.3188800771174556
 20
-0.1351024758304913
 30
0.0
 11
229.1675703054135056
 21
-0.4113083671414941
 31
0.0
  0
LINE
  5
367
100
AcDbEntity
100
AcDbLine
  8
zahn
 62
256
370
-1
  6
ByLayer
 10
229.1675703054135056
 20
-0.4113083671414941
 30
0.0
 11
229.0067134054754661
 21
-0.7610071487974981
 31
0.0
  0
LINE
  5
368
100
AcDbEntity
100
AcDbLine
  8
zahn
 62
256
370
-1
  6
ByLayer
 10
229.0067134054754661
 20
-0.7610071487974981
 30
0.0
 11
228.846027787354501
 21
-1.1865892428079938
 31
0.0
  0
LINE
  5
369
100
AcDbEntity
100
AcDbLine
  8
zahn
 62
256
370
-1
  6
ByLayer
 10
228.846027787354501
 20
-1.1865892428079938
 30
0.0
 11
228.6954980376134472
 21
-1.6894337071084955
 31
0.0
  0
LINE
  5
36A
100
AcDbEntity
100
AcDbLine
  8
zahn
 62
256
370
-1
  6
ByLayer
 10
228.6954980376134472
 20
-1.6894337071084955
 30
0.0
 11
228.5652802621424371
 21
-2.2698842508619954
 31
0.0
  0
LINE
  5
36B
100
AcDbEntity
100
AcDbLine
  8
zahn
 62
256
370
-1
  6
ByLayer
 10
228.5652802621424371
 20
-2.2698842508619954
 30
0.0
 11
228.4656054878803388
 21
-2.9272335886294911
 31
0.0
  0
LINE
  5
36C
100
AcDbEntity
100
AcDbLine
  8
zahn
 62
256
370
-1
  6
ByLayer
 10
233.988693797584574
 20
-2.8372435803394946
 30
0.0
 11
233.972385164803427
 21
-2.8682063395864983
 31
0.0
  0
LINE
  5
36D
100
AcDbEntity
100
AcDbLine
  8
zahn
 62
256
370
-1
  6
ByLayer
 10
233.972385164803427
 20
-2.8682063395864983
 30
0.0
 11
233.9177595580858906
 21
-2.9578538426434999
 31
0.0
  0
LINE
  5
36E
100
AcDbEntity
100
AcDbLine
  8
zahn
 62
256
370
-1
  6
ByLayer
 10
233.9177595580858906
 20
-2.9578538426434999
 30
0.0
 11
233.8166739828345726
 21
-3.1006623636664994
 31
0.0
  0
LINE
  5
36F
100
AcDbEntity
100
AcDbLine
  8
zahn
 62
256
370
-1
  6
ByLayer
 10
233.8166739828345726
 20
-3.1006623636664994
 30
0.0
 11
233.6615923221913818
 21
-3.2902676087615053
 31
0.0
  0
LINE
  5
370
100
AcDbEntity
100
AcDbLine
  8
zahn
 62
256
370
-1
  6
ByLayer
 10
233.6615923221913818
 20
-3.2902676087615053
 30
0.0
 11
233.4456622002524
 21
-3.5195240674655004
 31
0.0
  0
LINE
  5
371
100
AcDbEntity
100
AcDbLine
  8
zahn
 62
256
370
-1
  6
ByLayer
 10
233.4456622002524
 20
-3.5195240674655004
 30
0.0
 11
233.162786410961985
 21
-3.7805709367969946
 31
0.0
  0
LINE
  5
372
100
AcDbEntity
100
AcDbLine
  8
zahn
 62
256
370
-1
  6
ByLayer
 10
233.162786410961985
 20
-3.7805709367969946
 30
0.0
 11
232.8076883740110361
 21
-4.0649041405249946
 31
0.0
  0
LINE
  5
373
100
AcDbEntity
100
AcDbLine
  8
zahn
 62
256
370
-1
  6
ByLayer
 10
232.8076883740110361
 20
-4.0649041405249946
 30
0.0
 11
232.3759711203825873
 21
-4.3634539249145039
 31
0.0
  0
LINE
  5
374
100
AcDbEntity
100
AcDbLine
  8
zahn
 62
256
370
-1
  6
ByLayer
 10
232.3759711203825873
 20
-4.3634539249145039
 30
0.0
 11
231.8641693539450443
 21
-4.6666674712249989
 31
0.0
  0
LINE
  5
375
100
AcDbEntity
100
AcDbLine
  8
zahn
 62
256
370
-1
  6
ByLayer
 10
231.8641693539450443
 20
-4.6666674712249989
 30
0.0
 11
231.2697941819250218
 21
-4.9645959314074943
 31
0.0
  0
LINE
  5
376
100
AcDbEntity
100
AcDbLine
  8
zahn
 62
256
370
-1
  6
ByLayer
 10
228.4656054878803388
 20
-2.9272335886294911
 30
0.0
 11
228.4656054881954788
 21
-2.9272335882829967
 31
0.0
  0
LINE
  5
377
100
AcDbEntity
100
AcDbLine
  8
zahn
 62
256
370
-1
  6
ByLayer
 10
231.2697941819250218
 20
-4.9645959314074943
 30
0.0
 11
231.2697941821769518
 21
-4.964595930998005
 31
0.0
  0
LINE
  5
378
100
AcDbEntity
100
AcDbLine
  8
zahn
 62
256
370
-1
  6
ByLayer
 10
228.4656054881954788
 20
-2.9272335882829967
 30
0.0
 11
231.2697941821769518
 21
-4.964595930998005
 31
0.0
  0
LINE
  5
379
100
AcDbEntity
100
AcDbLine
  8
zahn
 62
256
370
-1
  6
ByLayer
 10
233.988693797584574
 20
-2.8372435803394946
 30
0.0
 11
237.3177064195324419
 21
-3.9189053502170008
 31
0.0
  0
LINE
  5
37A
100
AcDbEntity
100
AcDbLine
  8
zahn
 62
256
370
-1
  6
ByLayer
 10
237.3177064195324419
 20
-3.9189053502170008
 30
0.0
 11
237.3127009273603107
 21
-3.9535407224990013
 31
0.0
  0
LINE
  5
37B
100
AcDbEntity
100
AcDbLine
  8
zahn
 62
256
370
-1
  6
ByLayer
 10
237.3127009273603107
 20
-3.9535407224990013
 30
0.0
 11
237.3042004913133951
 21
-4.0581752019695028
 31
0.0
  0
LINE
  5
37C
100
AcDbEntity
100
AcDbLine
  8
zahn
 62
256
370
-1
  6
ByLayer
 10
237.3042004913133951
 20
-4.0581752019695028
 30
0.0
 11
237.3020396970117645
 21
-4.2331263327889985
 31
0.0
  0
LINE
  5
37D
100
AcDbEntity
100
AcDbLine
  8
zahn
 62
256
370
-1
  6
ByLayer
 10
237.3020396970117645
 20
-4.2331263327889985
 30
0.0
 11
237.31605622918687
 21
-4.4776749113045007
 31
0.0
  0
LINE
  5
37E
100
AcDbEntity
100
AcDbLine
  8
zahn
 62
256
370
-1
  6
ByLayer
 10
237.31605622918687
 20
-4.4776749113045007
 30
0.0
 11
237.3559938019973288
 21
-4.7900678236640015
 31
0.0
  0
LINE
  5
37F
100
AcDbEntity
100
AcDbLine
  8
zahn
 62
256
370
-1
  6
ByLayer
 10
237.3559938019973288
 20
-4.7900678236640015
 30
0.0
 11
237.4314056228810159
 21
-5.1675293944474987
 31
0.0
  0
LINE
  5
380
100
AcDbEntity
100
AcDbLine
  8
zahn
 62
256
370
-1
  6
ByLayer
 10
237.4314056228810159
 20
-5.1675293944474987
 30
0.0
 11
237.5515591055592495
 21
-5.6062811775814989
 31
0.0
  0
LINE
  5
381
100
AcDbEntity
100
AcDbLine
  8
zahn
 62
256
370
-1
  6
ByLayer
 10
237.5515591055592495
 20
-5.6062811775814989
 30
0.0
 11
237.7253425401797813
 21
-6.1015700616470063
 31
0.0
  0
LINE
  5
382
100
AcDbEntity
100
AcDbLine
  8
zahn
 62
256
370
-1
  6
ByLayer
 10
237.7253425401797813
 20
-6.1015700616470063
 30
0.0
 11
237.9611744161350089
 21
-6.6477045039515019
 31
0.0
  0
LINE
  5
383
100
AcDbEntity
100
AcDbLine
  8
zahn
 62
256
370
-1
  6
ByLayer
 10
237.9611744161350089
 20
-6.6477045039515019
 30
0.0
 11
238.2669160762155798
 21
-7.2380986517914998
 31
0.0
  0
LINE
  5
384
100
AcDbEntity
100
AcDbLine
  8
zahn
 62
256
370
-1
  6
ByLayer
 10
242.6822935804675581
 20
-3.9189053502170044
 30
0.0
 11
242.6872990726396893
 21
-3.9535407224990031
 31
0.0
  0
LINE
  5
385
100
AcDbEntity
100
AcDbLine
  8
zahn
 62
256
370
-1
  6
ByLayer
 10
242.6872990726396893
 20
-3.9535407224990031
 30
0.0
 11
242.6957995086866049
 21
-4.0581752019695028
 31
0.0
  0
LINE
  5
386
100
AcDbEntity
100
AcDbLine
  8
zahn
 62
256
370
-1
  6
ByLayer
 10
242.6957995086866049
 20
-4.0581752019695028
 30
0.0
 11
242.6979603029882355
 21
-4.2331263327890003
 31
0.0
  0
LINE
  5
387
100
AcDbEntity
100
AcDbLine
  8
zahn
 62
256
370
-1
  6
ByLayer
 10
242.6979603029882355
 20
-4.2331263327890003
 30
0.0
 11
242.68394377081313
 21
-4.4776749113045042
 31
0.0
  0
LINE
  5
388
100
AcDbEntity
100
AcDbLine
  8
zahn
 62
256
370
-1
  6
ByLayer
 10
242.68394377081313
 20
-4.4776749113045042
 30
0.0
 11
242.6440061980026712
 21
-4.7900678236640051
 31
0.0
  0
LINE
  5
389
100
AcDbEntity
100
AcDbLine
  8
zahn
 62
256
370
-1
  6
ByLayer
 10
242.6440061980026712
 20
-4.7900678236640051
 30
0.0
 11
242.5685943771189841
 21
-5.1675293944475023
 31
0.0
  0
LINE
  5
38A
100
AcDbEntity
100
AcDbLine
  8
zahn
 62
256
370
-1
  6
ByLayer
 10
242.5685943771189841
 20
-5.1675293944475023
 30
0.0
 11
242.4484408944407505
 21
-5.6062811775814989
 31
0.0
  0
LINE
  5
38B
100
AcDbEntity
100
AcDbLine
  8
zahn
 62
256
370
-1
  6
ByLayer
 10
242.4484408944407505
 20
-5.6062811775814989
 30
0.0
 11
242.2746574598202187
 21
-6.1015700616470063
 31
0.0
  0
LINE
  5
38C
100
AcDbEntity
100
AcDbLine
  8
zahn
 62
256
370
-1
  6
ByLayer
 10
242.2746574598202187
 20
-6.1015700616470063
 30
0.0
 11
242.0388255838649911
 21
-6.6477045039515019
 31
0.0
  0
LINE
  5
38D
100
AcDbEntity
100
AcDbLine
  8
zahn
 62
256
370
-1
  6
ByLayer
 10
242.0388255838649911
 20
-6.6477045039515019
 30
0.0
 11
241.7330839237844202
 21
-7.2380986517914998
 31
0.0
  0
LINE
  5
38E
100
AcDbEntity
100
AcDbLine
  8
zahn
 62
256
370
-1
  6
ByLayer
 10
238.2669160762155798
 20
-7.2380986517914998
 30
0.0
 11
238.2669160762595766
 21
-7.238098651350505
 31
0.0
  0
LINE
  5
38F
100
AcDbEntity
100
AcDbLine
  8
zahn
 62
256
370
-1
  6
ByLayer
 10
241.7330839237844202
 20
-7.2380986517914998
 30
0.0
 11
241.7330839237404234
 21
-7.238098651350505
 31
0.0
  0
LINE
  5
390
100
AcDbEntity
100
AcDbLine
  8
zahn
 62
256
370
-1
  6
ByLayer
 10
238.2669160762595766
 20
-7.238098651350505
 30
0.0
 11
241.7330839237404234
 21
-7.238098651350505
 31
0.0
  0
LINE
  5
391
100
AcDbEntity
100
AcDbLine
  8
zahn
 62
256
370
-1
  6
ByLayer
 10
242.6822935804675581
 20
-3.9189053502170044
 30
0.0
 11
246.011306202415426
 21
-2.8372435803395071
 31
0.0
  0
LINE
  5
392
100
AcDbEntity
100
AcDbLine
  8
zahn
 62
256
370
-1
  6
ByLayer
 10
246.011306202415426
 20
-2.8372435803395071
 30
0.0
 11
246.027614835196573
 21
-2.8682063395865072
 31
0.0
  0
LINE
  5
393
100
AcDbEntity
100
AcDbLine
  8
zahn
 62
256
370
-1
  6
ByLayer
 10
246.027614835196573
 20
-2.8682063395865072
 30
0.0
 11
246.0822404419141094
 21
-2.9578538426435053
 31
0.0
  0
LINE
  5
394
100
AcDbEntity
100
AcDbLine
  8
zahn
 62
256
370
-1
  6
ByLayer
 10
246.0822404419141094
 20
-2.9578538426435053
 30
0.0
 11
246.1833260171654274
 21
-3.1006623636665012
 31
0.0
  0
LINE
  5
395
100
AcDbEntity
100
AcDbLine
  8
zahn
 62
256
370
-1
  6
ByLayer
 10
246.1833260171654274
 20
-3.1006623636665012
 30
0.0
 11
246.3384076778086182
 21
-3.2902676087615106
 31
0.0
  0
LINE
  5
396
100
AcDbEntity
100
AcDbLine
  8
zahn
 62
256
370
-1
  6
ByLayer
 10
246.3384076778086182
 20
-3.2902676087615106
 30
0.0
 11
246.5543377997476
 21
-3.5195240674655075
 31
0.0
  0
LINE
  5
397
100
AcDbEntity
100
AcDbLine
  8
zahn
 62
256
370
-1
  6
ByLayer
 10
246.5543377997476
 20
-3.5195240674655075
 30
0.0
 11
246.837213589038015
 21
-3.7805709367970071
 31
0.0
  0
LINE
  5
398
100
AcDbEntity
100
AcDbLine
  8
zahn
 62
256
370
-1
  6
ByLayer
 10
246.837213589038015
 20
-3.7805709367970071
 30
0.0
 11
247.1923116259889639
 21
-4.0649041405249999
 31
0.0
  0
LINE
  5
399
100
AcDbEntity
100
AcDbLine
  8
zahn
 62
256
370
-1
  6
ByLayer
 10
247.1923116259889639
 20
-4.0649041405249999
 30
0.0
 11
247.6240288796174127
 21
-4.3634539249145057
 31
0.0
  0
LINE
  5
39A
100
AcDbEntity
100
AcDbLine
  8
zahn
 62
256
370
-1
  6
ByLayer
 10
247.6240288796174127
 20
-4.3634539249145057
 30
0.0
 11
248.1358306460549557
 21
-4.6666674712250042
 31
0.0
  0
LINE
  5
39B
100
AcDbEntity
100
AcDbLine
  8
zahn
 62
256
370
-1
  6
ByLayer
 10
248.1358306460549557
 20
-4.6666674712250042
 30
0.0
 11
248.7302058180749782
 21
-4.9645959314075014
 31
0.0
  0
LINE
  5
39C
100
AcDbEntity
100
AcDbLine
  8
zahn
 62
256
370
-1
  6
ByLayer
 10
250.3513483834110502
 20
0.315981637502496
 30
0.0
 11
250.3757560726680822
 21
0.2909031871824901
 31
0.0
  0
LINE
  5
39D
100
AcDbEntity
100
AcDbLine
  8
zahn
 62
256
370
-1
  6
ByLayer
 10
250.3757560726680822
 20
0.2909031871824901
 30
0.0
 11
250.4441356738213926
 21
0.2112485460534987
 31
0.0
  0
LINE
  5
39E
100
AcDbEntity
100
AcDbLine
  8
zahn
 62
256
370
-1
  6
ByLayer
 10
250.4441356738213926
 20
0.2112485460534987
 30
0.0
 11
250.5487174876859626
 21
0.070980191046992
 31
0.0
  0
LINE
  5
39F
100
AcDbEntity
100
AcDbLine
  8
zahn
 62
256
370
-1
  6
ByLayer
 10
250.5487174876859626
 20
0.070980191046992
 30
0.0
 11
250.6811199228825444
 21
-0.1351024758305091
 31
0.0
  0
LINE
  5
3A0
100
AcDbEntity
100
AcDbLine
  8
zahn
 62
256
370
-1
  6
ByLayer
 10
250.6811199228825444
 20
-0.1351024758305091
 30
0.0
 11
250.8324296945864944
 21
-0.411308367141503
 31
0.0
  0
LINE
  5
3A1
100
AcDbEntity
100
AcDbLine
  8
zahn
 62
256
370
-1
  6
ByLayer
 10
250.8324296945864944
 20
-0.411308367141503
 30
0.0
 11
250.9932865945245339
 21
-0.761007148797507
 31
0.0
  0
LINE
  5
3A2
100
AcDbEntity
100
AcDbLine
  8
zahn
 62
256
370
-1
  6
ByLayer
 10
250.9932865945245339
 20
-0.761007148797507
 30
0.0
 11
251.153972212645499
 21
-1.1865892428080063
 31
0.0
  0
LINE
  5
3A3
100
AcDbEntity
100
AcDbLine
  8
zahn
 62
256
370
-1
  6
ByLayer
 10
251.153972212645499
 20
-1.1865892428080063
 30
0.0
 11
251.3045019623865528
 21
-1.6894337071085079
 31
0.0
  0
LINE
  5
3A4
100
AcDbEntity
100
AcDbLine
  8
zahn
 62
256
370
-1
  6
ByLayer
 10
251.3045019623865528
 20
-1.6894337071085079
 30
0.0
 11
251.4347197378575629
 21
-2.2698842508620078
 31
0.0
  0
LINE
  5
3A5
100
AcDbEntity
100
AcDbLine
  8
zahn
 62
256
370
-1
  6
ByLayer
 10
251.4347197378575629
 20
-2.2698842508620078
 30
0.0
 11
251.5343945121194338
 21
-2.9272335886295089
 31
0.0
  0
LINE
  5
3A6
100
AcDbEntity
100
AcDbLine
  8
zahn
 62
256
370
-1
  6
ByLayer
 10
248.7302058180749782
 20
-4.9645959314075014
 30
0.0
 11
248.7302058178230482
 21
-4.9645959309980121
 31
0.0
  0
LINE
  5
3A7
100
AcDbEntity
100
AcDbLine
  8
zahn
 62
256
370
-1
  6
ByLayer
 10
251.5343945121194338
 20
-2.9272335886295089
 30
0.0
 11
251.5343945118045212
 21
-2.9272335882830145
 31
0.0
  0
LINE
  5
3A8
100
AcDbEntity
100
AcDbLine
  8
zahn
 62
256
370
-1
  6
ByLayer
 10
248.7302058178230482
 20
-4.9645959309980121
 30
0.0
 11
251.5343945118045212
 21
-2.9272335882830145
 31
0.0
  0
LINE
  5
3A9
100
AcDbEntity
100
AcDbLine
  8
zahn
 62
256
370
-1
  6
ByLayer
 10
250.3513483834110502
 20
0.315981637502496
 30
0.0
 11
252.408791332738474
 21
3.1478089153555002
 31
0.0
  0
LINE
  5
3AA
100
AcDbEntity
100
AcDbLine
  8
zahn
 62
256
370
-1
  6
ByLayer
 10
252.408791332738474
 20
3.1478089153555002
 30
0.0
 11
252.4401847471019664
 21
3.1323454907634902
 31
0.0
  0
LINE
  5
3AB
100
AcDbEntity
100
AcDbLine
  8
zahn
 62
256
370
-1
  6
ByLayer
 10
252.4401847471019664
 20
3.1323454907634902
 30
0.0
 11
252.537071271458899
 21
3.0919272633370021
 31
0.0
  0
LINE
  5
3AC
100
AcDbEntity
100
AcDbLine
  8
zahn
 62
256
370
-1
  6
ByLayer
 10
252.537071271458899
 20
3.0919272633370021
 30
0.0
 11
252.7027919622554464
 21
3.0358093532229971
 31
0.0
  0
LINE
  5
3AD
100
AcDbEntity
100
AcDbLine
  8
zahn
 62
256
370
-1
  6
ByLayer
 10
252.7027919622554464
 20
3.0358093532229971
 30
0.0
 11
252.939702828065947
 21
2.9735702007579929
 31
0.0
  0
LINE
  5
3AE
100
AcDbEntity
100
AcDbLine
  8
zahn
 62
256
370
-1
  6
ByLayer
 10
252.939702828065947
 20
2.9735702007579929
 30
0.0
 11
253.2491475317249296
 21
2.9150183707884922
 31
0.0
  0
LINE
  5
3AF
100
AcDbEntity
100
AcDbLine
  8
zahn
 62
256
370
-1
  6
ByLayer
 10
253.2491475317249296
 20
2.9150183707884922
 30
0.0
 11
253.6314383525145786
 21
2.8700972343639917
 31
0.0
  0
LINE
  5
3B0
100
AcDbEntity
100
AcDbLine
  8
zahn
 62
256
370
-1
  6
ByLayer
 10
253.6314383525145786
 20
2.8700972343639917
 30
0.0
 11
254.0858455629780792
 21
2.8487882297169875
 31
0.0
  0
LINE
  5
3B1
100
AcDbEntity
100
AcDbLine
  8
zahn
 62
256
370
-1
  6
ByLayer
 10
254.0858455629780792
 20
2.8487882297169875
 30
0.0
 11
254.6105953182629946
 21
2.8610134153120041
 31
0.0
  0
LINE
  5
3B2
100
AcDbEntity
100
AcDbLine
  8
zahn
 62
256
370
-1
  6
ByLayer
 10
254.6105953182629946
 20
2.8610134153120041
 30
0.0
 11
255.202876095886495
 21
2.91653803382499
 31
0.0
  0
LINE
  5
3B3
100
AcDbEntity
100
AcDbLine
  8
zahn
 62
256
370
-1
  6
ByLayer
 10
255.202876095886495
 20
2.91653803382499
 30
0.0
 11
255.8588536662044817
 21
3.0248738068914882
 31
0.0
  0
LINE
  5
3B4
100
AcDbEntity
100
AcDbLine
  8
zahn
 62
256
370
-1
  6
ByLayer
 10
254.0665399332885954
 20
8.249834492008743
 30
0.0
 11
254.1010269119369696
 21
8.2438920793157244
 31
0.0
  0
LINE
  5
3B5
100
AcDbEntity
100
AcDbLine
  8
zahn
 62
256
370
-1
  6
ByLayer
 10
254.1010269119369696
 20
8.2438920793157244
 30
0.0
 11
254.2031669946705961
 21
8.2196426420487896
 31
0.0
  0
LINE
  5
3B6
100
AcDbEntity
100
AcDbLine
  8
zahn
 62
256
370
-1
  6
ByLayer
 10
254.2031669946705961
 20
8.2196426420487896
 30
0.0
 11
254.3702231298256038
 21
8.1676348069496321
 31
0.0
  0
LINE
  5
3B7
100
AcDbEntity
100
AcDbLine
  8
zahn
 62
256
370
-1
  6
ByLayer
 10
254.3702231298256038
 20
8.1676348069496321
 30
0.0
 11
254.5984713023206041
 21
8.0787346259702382
 31
0.0
  0
LINE
  5
3B8
100
AcDbEntity
100
AcDbLine
  8
zahn
 62
256
370
-1
  6
ByLayer
 10
254.5984713023206041
 20
8.0787346259702382
 30
0.0
 11
254.883233228577069
 21
7.9442170182590495
 31
0.0
  0
LINE
  5
3B9
100
AcDbEntity
100
AcDbLine
  8
zahn
 62
256
370
-1
  6
ByLayer
 10
254.883233228577069
 20
7.9442170182590495
 30
0.0
 11
255.2189169808725637
 21
7.7558540745110438
 31
0.0
  0
LINE
  5
3BA
100
AcDbEntity
100
AcDbLine
  8
zahn
 62
256
370
-1
  6
ByLayer
 10
255.2189169808725637
 20
7.7558540745110438
 30
0.0
 11
255.5990652552000029
 21
7.5059995645503887
 31
0.0
  0
LINE
  5
3BB
100
AcDbEntity
100
AcDbLine
  8
zahn
 62
256
370
-1
  6
ByLayer
 10
255.5990652552000029
 20
7.5059995645503887
 30
0.0
 11
256.0164109412054358
 21
7.1876690143309059
 31
0.0
  0
LINE
  5
3BC
100
AcDbEntity
100
AcDbLine
  8
zahn
 62
256
370
-1
  6
ByLayer
 10
256.0164109412054358
 20
7.1876690143309059
 30
0.0
 11
256.4629396038239975
 21
6.794614748071
 31
0.0
  0
LINE
  5
3BD
100
AcDbEntity
100
AcDbLine
  8
zahn
 62
256
370
-1
  6
ByLayer
 10
256.4629396038239975
 20
6.794614748071
 30
0.0
 11
256.9299584364644033
 21
6.3213953248944943
 31
0.0
  0
LINE
  5
3BE
100
AcDbEntity
100
AcDbLine
  8
zahn
 62
256
370
-1
  6
ByLayer
 10
255.8588536662044817
 20
3.0248738068914882
 30
0.0
 11
255.8588536657949817
 21
3.0248738070804899
 31
0.0
  0
LINE
  5
3BF
100
AcDbEntity
100
AcDbLine
  8
zahn
 62
256
370
-1
  6
ByLayer
 10
256.9299584364644033
 20
6.3213953248944943
 30
0.0
 11
256.9299584360234121
 21
6.3213953249889769
 31
0.0
  0
LINE
  5
3C0
100
AcDbEntity
100
AcDbLine
  8
zahn
 62
256
370
-1
  6
ByLayer
 10
255.8588536657949817
 20
3.0248738070804899
 30
0.0
 11
256.9299584360234121
 21
6.3213953249889769
 31
0.0
  0
CIRCLE
  5
3C1
100
AcDbEntity
100
AcDbCircle
  8
zahn
 62
256
370
-1
  6
ByLayer
 10
240.0
 20
10.0
 30
0.0
 40
1.5374999999999999
  0
LINE
  5
3C2
100
AcDbEntity
100
AcDbLine
  8
zahn
 62
256
370
-1
  6
ByLayer
 10
254.0665399332885954
 20
8.249834492008743
 30
0.0
 11
254.0665399332885954
 21
11.7501655079912499
 31
0.0
  0
LINE
  5
3C3
100
AcDbEntity
100
AcDbLine
  8
zahn
 62
256
370
-1
  6
ByLayer
 10
254.0665399332885954
 20
11.7501655079912499
 30
0.0
 11
254.1010269119369696
 21
11.756107920684256
 31
0.0
  0
LINE
  5
3C4
100
AcDbEntity
100
AcDbLine
  8
zahn
 62
256
370
-1
  6
ByLayer
 10
254.1010269119369696
 20
11.756107920684256
 30
0.0
 11
254.2031669946705961
 21
11.7803573579512069
 31
0.0
  0
LINE
  5
3C5
100
AcDbEntity
100
AcDbLine
  8
zahn
 62
256
370
-1
  6
ByLayer
 10
254.2031669946705961
 20
11.7803573579512069
 30
0.0
 11
254.3702231298256038
 21
11.8323651930503591
 31
0.0
  0
LINE
  5
3C6
100
AcDbEntity
100
AcDbLine
  8
zahn
 62
256
370
-1
  6
ByLayer
 10
254.3702231298256038
 20
11.8323651930503591
 30
0.0
 11
254.5984713023206041
 21
11.9212653740297529
 31
0.0
  0
LINE
  5
3C7
100
AcDbEntity
100
AcDbLine
  8
zahn
 62
256
370
-1
  6
ByLayer
 10
254.5984713023206041
 20
11.9212653740297529
 30
0.0
 11
254.883233228577069
 21
12.055782981740947
 31
0.0
  0
LINE
  5
3C8
100
AcDbEntity
100
AcDbLine
  8
zahn
 62
256
370
-1
  6
ByLayer
 10
254.883233228577069
 20
12.055782981740947
 30
0.0
 11
255.2189169808725637
 21
12.2441459254889402
 31
0.0
  0
LINE
  5
3C9
100
AcDbEntity
100
AcDbLine
  8
zahn
 62
256
370
-1
  6
ByLayer
 10
255.2189169808725637
 20
12.2441459254889402
 30
0.0
 11
255.5990652552000029
 21
12.4940004354495979
 31
0.0
  0
LINE
  5
3CA
100
AcDbEntity
100
AcDbLine
  8
zahn
 62
256
370
-1
  6
ByLayer
 10
255.5990652552000029
 20
12.4940004354495979
 30
0.0
 11
256.0164109412054358
 21
12.8123309856690959
 31
0.0
  0
LINE
  5
3CB
100
AcDbEntity
100
AcDbLine
  8
zahn
 62
256
370
-1
  6
ByLayer
 10
256.0164109412054358
 20
12.8123309856690959
 30
0.0
 11
256.4629396038239975
 21
13.2053852519289894
 31
0.0
  0
LINE
  5
3CC
100
AcDbEntity
100
AcDbLine
  8
zahn
 62
256
370
-1
  6
ByLayer
 10
256.4629396038239975
 20
13.2053852519289894
 30
0.0
 11
256.9299584364644033
 21
13.678604675105495
 31
0.0
  0
LINE
  5
3CD
100
AcDbEntity
100
AcDbLine
  8
zahn
 62
256
370
-1
  6
ByLayer
 10
252.408791332738474
 20
16.8521910846445024
 30
0.0
 11
252.4401847471019664
 21
16.8676545092365018
 31
0.0
  0
LINE
  5
3CE
100
AcDbEntity
100
AcDbLine
  8
zahn
 62
256
370
-1
  6
ByLayer
 10
252.4401847471019664
 20
16.8676545092365018
 30
0.0
 11
252.537071271458899
 21
16.9080727366629979
 31
0.0
  0
LINE
  5
3CF
100
AcDbEntity
100
AcDbLine
  8
zahn
 62
256
370
-1
  6
ByLayer
 10
252.537071271458899
 20
16.9080727366629979
 30
0.0
 11
252.7027919622554464
 21
16.9641906467770021
 31
0.0
  0
LINE
  5
3D0
100
AcDbEntity
100
AcDbLine
  8
zahn
 62
256
370
-1
  6
ByLayer
 10
252.7027919622554464
 20
16.9641906467770021
 30
0.0
 11
252.939702828065947
 21
17.0264297992420026
 31
0.0
  0
LINE
  5
3D1
100
AcDbEntity
100
AcDbLine
  8
zahn
 62
256
370
-1
  6
ByLayer
 10
252.939702828065947
 20
17.0264297992420026
 30
0.0
 11
253.2491475317249296
 21
17.0849816292114944
 31
0.0
  0
LINE
  5
3D2
100
AcDbEntity
100
AcDbLine
  8
zahn
 62
256
370
-1
  6
ByLayer
 10
253.2491475317249296
 20
17.0849816292114944
 30
0.0
 11
253.6314383525145786
 21
17.1299027656360039
 31
0.0
  0
LINE
  5
3D3
100
AcDbEntity
100
AcDbLine
  8
zahn
 62
256
370
-1
  6
ByLayer
 10
253.6314383525145786
 20
17.1299027656360039
 30
0.0
 11
254.0858455629780792
 21
17.1512117702829983
 31
0.0
  0
LINE
  5
3D4
100
AcDbEntity
100
AcDbLine
  8
zahn
 62
256
370
-1
  6
ByLayer
 10
254.0858455629780792
 20
17.1512117702829983
 30
0.0
 11
254.6105953182629946
 21
17.1389865846879985
 31
0.0
  0
LINE
  5
3D5
100
AcDbEntity
100
AcDbLine
  8
zahn
 62
256
370
-1
  6
ByLayer
 10
254.6105953182629946
 20
17.1389865846879985
 30
0.0
 11
255.202876095886495
 21
17.0834619661750047
 31
0.0
  0
LINE
  5
3D6
100
AcDbEntity
100
AcDbLine
  8
zahn
 62
256
370
-1
  6
ByLayer
 10
255.202876095886495
 20
17.0834619661750047
 30
0.0
 11
255.8588536662044817
 21
16.9751261931085011
 31
0.0
  0
LINE
  5
3D7
100
AcDbEntity
100
AcDbLine
  8
zahn
 62
256
370
-1
  6
ByLayer
 10
256.9299584364644033
 20
13.678604675105495
 30
0.0
 11
256.9299584360234121
 21
13.6786046750110089
 31
0.0
  0
LINE
  5
3D8
100
AcDbEntity
100
AcDbLine
  8
zahn
 62
256
370
-1
  6
ByLayer
 10
255.8588536662044817
 20
16.9751261931085011
 30
0.0
 11
255.8588536657949817
 21
16.9751261929195003
 31
0.0
  0
LINE
  5
3D9
100
AcDbEntity
100
AcDbLine
  8
zahn
 62
256
370
-1
  6
ByLayer
 10
256.9299584360234121
 20
13.6786046750110089
 30
0.0
 11
255.8588536657949817
 21
16.9751261929195003
 31
0.0
  0
LINE
  5
3DA
100
AcDbEntity
100
AcDbLine
  8
zahn
 62
256
370
-1
  6
ByLayer
 10
252.408791332738474
 20
16.8521910846445024
 30
0.0
 11
250.3513483834110502
 21
19.6840183624974969
 31
0.0
  0
LINE
  5
3DB
100
AcDbEntity
100
AcDbLine
  8
zahn
 62
256
370
-1
  6
ByLayer
 10
250.3513483834110502
 20
19.6840183624974969
 30
0.0
 11
250.3757560726680822
 21
19.7090968128174993
 31
0.0
  0
LINE
  5
3DC
100
AcDbEntity
100
AcDbLine
  8
zahn
 62
256
370
-1
  6
ByLayer
 10
250.3757560726680822
 20
19.7090968128174993
 30
0.0
 11
250.4441356738213926
 21
19.7887514539464959
 31
0.0
  0
LINE
  5
3DD
100
AcDbEntity
100
AcDbLine
  8
zahn
 62
256
370
-1
  6
ByLayer
 10
250.4441356738213926
 20
19.7887514539464959
 30
0.0
 11
250.5487174876859626
 21
19.9290198089530008
 31
0.0
  0
LINE
  5
3DE
100
AcDbEntity
100
AcDbLine
  8
zahn
 62
256
370
-1
  6
ByLayer
 10
250.5487174876859626
 20
19.9290198089530008
 30
0.0
 11
250.6811199228825444
 21
20.1351024758305002
 31
0.0
  0
LINE
  5
3DF
100
AcDbEntity
100
AcDbLine
  8
zahn
 62
256
370
-1
  6
ByLayer
 10
250.6811199228825444
 20
20.1351024758305002
 30
0.0
 11
250.8324296945864944
 21
20.4113083671415012
 31
0.0
  0
LINE
  5
3E0
100
AcDbEntity
100
AcDbLine
  8
zahn
 62
256
370
-1
  6
ByLayer
 10
250.8324296945864944
 20
20.4113083671415012
 30
0.0
 11
250.9932865945245339
 21
20.7610071487974999
 31
0.0
  0
LINE
  5
3E1
100
AcDbEntity
100
AcDbLine
  8
zahn
 62
256
370
-1
  6
ByLayer
 10
250.9932865945245339
 20
20.7610071487974999
 30
0.0
 11
251.153972212645499
 21
21.1865892428080045
 31
0.0
  0
LINE
  5
3E2
100
AcDbEntity
100
AcDbLine
  8
zahn
 62
256
370
-1
  6
ByLayer
 10
251.153972212645499
 20
21.1865892428080045
 30
0.0
 11
251.3045019623865528
 21
21.6894337071085026
 31
0.0
  0
LINE
  5
3E3
100
AcDbEntity
100
AcDbLine
  8
zahn
 62
256
370
-1
  6
ByLayer
 10
251.3045019623865528
 20
21.6894337071085026
 30
0.0
 11
251.4347197378575629
 21
22.269884250861999
 31
0.0
  0
LINE
  5
3E4
100
AcDbEntity
100
AcDbLine
  8
zahn
 62
256
370
-1
  6
ByLayer
 10
251.4347197378575629
 20
22.269884250861999
 30
0.0
 11
251.5343945121194338
 21
22.9272335886294982
 31
0.0
  0
LINE
  5
3E5
100
AcDbEntity
100
AcDbLine
  8
zahn
 62
256
370
-1
  6
ByLayer
 10
246.011306202415426
 20
22.8372435803394964
 30
0.0
 11
246.027614835196573
 21
22.8682063395865001
 31
0.0
  0
LINE
  5
3E6
100
AcDbEntity
100
AcDbLine
  8
zahn
 62
256
370
-1
  6
ByLayer
 10
246.027614835196573
 20
22.8682063395865001
 30
0.0
 11
246.0822404419141094
 21
22.9578538426435017
 31
0.0
  0
LINE
  5
3E7
100
AcDbEntity
100
AcDbLine
  8
zahn
 62
256
370
-1
  6
ByLayer
 10
246.0822404419141094
 20
22.9578538426435017
 30
0.0
 11
246.1833260171654274
 21
23.1006623636665012
 31
0.0
  0
LINE
  5
3E8
100
AcDbEntity
100
AcDbLine
  8
zahn
 62
256
370
-1
  6
ByLayer
 10
246.1833260171654274
 20
23.1006623636665012
 30
0.0
 11
246.3384076778086182
 21
23.2902676087614999
 31
0.0
  0
LINE
  5
3E9
100
AcDbEntity
100
AcDbLine
  8
zahn
 62
256
370
-1
  6
ByLayer
 10
246.3384076778086182
 20
23.2902676087614999
 30
0.0
 11
246.5543377997476
 21
23.5195240674655039
 31
0.0
  0
LINE
  5
3EA
100
AcDbEntity
100
AcDbLine
  8
zahn
 62
256
370
-1
  6
ByLayer
 10
246.5543377997476
 20
23.5195240674655039
 30
0.0
 11
246.837213589038015
 21
23.7805709367969982
 31
0.0
  0
LINE
  5
3EB
100
AcDbEntity
100
AcDbLine
  8
zahn
 62
256
370
-1
  6
ByLayer
 10
246.837213589038015
 20
23.7805709367969982
 30
0.0
 11
247.1923116259889639
 21
24.0649041405250017
 31
0.0
  0
LINE
  5
3EC
100
AcDbEntity
100
AcDbLine
  8
zahn
 62
256
370
-1
  6
ByLayer
 10
247.1923116259889639
 20
24.0649041405250017
 30
0.0
 11
247.6240288796175264
 21
24.3634539249145021
 31
0.0
  0
LINE
  5
3ED
100
AcDbEntity
100
AcDbLine
  8
zahn
 62
256
370
-1
  6
ByLayer
 10
247.6240288796175264
 20
24.3634539249145021
 30
0.0
 11
248.1358306460549557
 21
24.6666674712250042
 31
0.0
  0
LINE
  5
3EE
100
AcDbEntity
100
AcDbLine
  8
zahn
 62
256
370
-1
  6
ByLayer
 10
248.1358306460549557
 20
24.6666674712250042
 30
0.0
 11
248.7302058180749782
 21
24.9645959314075014
 31
0.0
  0
LINE
  5
3EF
100
AcDbEntity
100
AcDbLine
  8
zahn
 62
256
370
-1
  6
ByLayer
 10
251.5343945121194338
 20
22.9272335886294982
 30
0.0
 11
251.5343945118045212
 21
22.9272335882830056
 31
0.0
  0
LINE
  5
3F0
100
AcDbEntity
100
AcDbLine
  8
zahn
 62
256
370
-1
  6
ByLayer
 10
248.7302058180749782
 20
24.9645959314075014
 30
0.0
 11
248.7302058178230482
 21
24.9645959309980014
 31
0.0
  0
LINE
  5
3F1
100
AcDbEntity
100
AcDbLine
  8
zahn
 62
256
370
-1
  6
ByLayer
 10
251.5343945118045212
 20
22.9272335882830056
 30
0.0
 11
248.7302058178230482
 21
24.9645959309980014
 31
0.0
  0
LINE
  5
3F2
100
AcDbEntity
100
AcDbLine
  8
zahn
 62
256
370
-1
  6
ByLayer
 10
246.011306202415426
 20
22.8372435803394964
 30
0.0
 11
242.6822935804675581
 21
23.9189053502170026
 31
0.0
  0
LINE
  5
3F3
100
AcDbEntity
100
AcDbLine
  8
zahn
 62
256
370
-1
  6
ByLayer
 10
242.6822935804675581
 20
23.9189053502170026
 30
0.0
 11
242.6872990726396893
 21
23.9535407224989996
 31
0.0
  0
LINE
  5
3F4
100
AcDbEntity
100
AcDbLine
  8
zahn
 62
256
370
-1
  6
ByLayer
 10
242.6872990726396893
 20
23.9535407224989996
 30
0.0
 11
242.6957995086866049
 21
24.058175201969501
 31
0.0
  0
LINE
  5
3F5
100
AcDbEntity
100
AcDbLine
  8
zahn
 62
256
370
-1
  6
ByLayer
 10
242.6957995086866049
 20
24.058175201969501
 30
0.0
 11
242.6979603029882355
 21
24.2331263327889985
 31
0.0
  0
LINE
  5
3F6
100
AcDbEntity
100
AcDbLine
  8
zahn
 62
256
370
-1
  6
ByLayer
 10
242.6979603029882355
 20
24.2331263327889985
 30
0.0
 11
242.68394377081313
 21
24.4776749113045042
 31
0.0
  0
LINE
  5
3F7
100
AcDbEntity
100
AcDbLine
  8
zahn
 62
256
370
-1
  6
ByLayer
 10
242.68394377081313
 20
24.4776749113045042
 30
0.0
 11
242.6440061980026712
 21
24.7900678236640033
 31
0.0
  0
LINE
  5
3F8
100
AcDbEntity
100
AcDbLine
  8
zahn
 62
256
370
-1
  6
ByLayer
 10
242.6440061980026712
 20
24.7900678236640033
 30
0.0
 11
242.5685943771189841
 21
25.1675293944475023
 31
0.0
  0
LINE
  5
3F9
100
AcDbEntity
100
AcDbLine
  8
zahn
 62
256
370
-1
  6
ByLayer
 10
242.5685943771189841
 20
25.1675293944475023
 30
0.0
 11
242.4484408944407505
 21
25.6062811775815007
 31
0.0
  0
LINE
  5
3FA
100
AcDbEntity
100
AcDbLine
  8
zahn
 62
256
370
-1
  6
ByLayer
 10
242.4484408944407505
 20
25.6062811775815007
 30
0.0
 11
242.2746574598202187
 21
26.1015700616470028
 31
0.0
  0
LINE
  5
3FB
100
AcDbEntity
100
AcDbLine
  8
zahn
 62
256
370
-1
  6
ByLayer
 10
242.2746574598202187
 20
26.1015700616470028
 30
0.0
 11
242.0388255838649911
 21
26.6477045039515019
 31
0.0
  0
LINE
  5
3FC
100
AcDbEntity
100
AcDbLine
  8
zahn
 62
256
370
-1
  6
ByLayer
 10
242.0388255838649911
 20
26.6477045039515019
 30
0.0
 11
241.7330839237844202
 21
27.2380986517914998
 31
0.0
  0
LINE
  5
3FD
100
AcDbEntity
100
AcDbLine
  8
zahn
 62
256
370
-1
  6
ByLayer
 10
237.3177064195324419
 20
23.9189053502170026
 30
0.0
 11
237.3127009273603107
 21
23.9535407224990031
 31
0.0
  0
LINE
  5
3FE
100
AcDbEntity
100
AcDbLine
  8
zahn
 62
256
370
-1
  6
ByLayer
 10
237.3127009273603107
 20
23.9535407224990031
 30
0.0
 11
237.3042004913133951
 21
24.0581752019695045
 31
0.0
  0
LINE
  5
3FF
100
AcDbEntity
100
AcDbLine
  8
zahn
 62
256
370
-1
  6
ByLayer
 10
237.3042004913133951
 20
24.0581752019695045
 30
0.0
 11
237.3020396970117645
 21
24.2331263327889985
 31
0.0
  0
LINE
  5
400
100
AcDbEntity
100
AcDbLine
  8
zahn
 62
256
370
-1
  6
ByLayer
 10
237.3020396970117645
 20
24.2331263327889985
 30
0.0
 11
237.31605622918687
 21
24.4776749113045042
 31
0.0
  0
LINE
  5
401
100
AcDbEntity
100
AcDbLine
  8
zahn
 62
256
370
-1
  6
ByLayer
 10
237.31605622918687
 20
24.4776749113045042
 30
0.0
 11
237.3559938019973288
 21
24.7900678236640033
 31
0.0
  0
LINE
  5
402
100
AcDbEntity
100
AcDbLine
  8
zahn
 62
256
370
-1
  6
ByLayer
 10
237.3559938019973288
 20
24.7900678236640033
 30
0.0
 11
237.4314056228810159
 21
25.1675293944475023
 31
0.0
  0
LINE
  5
403
100
AcDbEntity
100
AcDbLine
  8
zahn
 62
256
370
-1
  6
ByLayer
 10
237.4314056228810159
 20
25.1675293944475023
 30
0.0
 11
237.5515591055592495
 21
25.6062811775815007
 31
0.0
  0
LINE
  5
404
100
AcDbEntity
100
AcDbLine
  8
zahn
 62
256
370
-1
  6
ByLayer
 10
237.5515591055592495
 20
25.6062811775815007
 30
0.0
 11
237.7253425401797813
 21
26.1015700616470063
 31
0.0
  0
LINE
  5
405
100
AcDbEntity
100
AcDbLine
  8
zahn
 62
256
370
-1
  6
ByLayer
 10
237.7253425401797813
 20
26.1015700616470063
 30
0.0
 11
237.9611744161350089
 21
26.6477045039515019
 31
0.0
  0
LINE
  5
406
100
AcDbEntity
100
AcDbLine
  8
zahn
 62
256
370
-1
  6
ByLayer
 10
237.9611744161350089
 20
26.6477045039515019
 30
0.0
 11
238.2669160762155798
 21
27.2380986517914998
 31
0.0
  0
LINE
  5
407
100
AcDbEntity
100
AcDbLine
  8
zahn
 62
256
370
-1
  6
ByLayer
 10
241.7330839237844202
 20
27.2380986517914998
 30
0.0
 11
241.7330839237404234
 21
27.238098651350505
 31
0.0
  0
LINE
  5
408
100
AcDbEntity
100
AcDbLine
  8
zahn
 62
256
370
-1
  6
ByLayer
 10
238.2669160762155798
 20
27.2380986517914998
 30
0.0
 11
238.2669160762595766
 21
27.238098651350505
 31
0.0
  0
LINE
  5
409
100
AcDbEntity
100
AcDbLine
  8
zahn
 62
256
370
-1
  6
ByLayer
 10
241.7330839237404234
 20
27.238098651350505
 30
0.0
 11
238.2669160762595766
 21
27.238098651350505
 31
0.0
  0
LINE
  5
40A
100
AcDbEntity
100
AcDbLine
  8
zahn
 62
256
370
-1
  6
ByLayer
 10
237.3177064195324419
 20
23.9189053502170026
 30
0.0
 11
233.988693797584574
 21
22.8372435803395035
 31
0.0
  0
LINE
  5
40B
100
AcDbEntity
100
AcDbLine
  8
zahn
 62
256
370
-1
  6
ByLayer
 10
233.988693797584574
 20
22.8372435803395035
 30
0.0
 11
233.972385164803427
 21
22.8682063395865001
 31
0.0
  0
LINE
  5
40C
100
AcDbEntity
100
AcDbLine
  8
zahn
 62
256
370
-1
  6
ByLayer
 10
233.972385164803427
 20
22.8682063395865001
 30
0.0
 11
233.9177595580858906
 21
22.9578538426435017
 31
0.0
  0
LINE
  5
40D
100
AcDbEntity
100
AcDbLine
  8
zahn
 62
256
370
-1
  6
ByLayer
 10
233.9177595580858906
 20
22.9578538426435017
 30
0.0
 11
233.8166739828345726
 21
23.1006623636665012
 31
0.0
  0
LINE
  5
40E
100
AcDbEntity
100
AcDbLine
  8
zahn
 62
256
370
-1
  6
ByLayer
 10
233.8166739828345726
 20
23.1006623636665012
 30
0.0
 11
233.6615923221913818
 21
23.2902676087614964
 31
0.0
  0
LINE
  5
40F
100
AcDbEntity
100
AcDbLine
  8
zahn
 62
256
370
-1
  6
ByLayer
 10
233.6615923221913818
 20
23.2902676087614964
 30
0.0
 11
233.4456622002524
 21
23.5195240674655039
 31
0.0
  0
LINE
  5
410
100
AcDbEntity
100
AcDbLine
  8
zahn
 62
256
370
-1
  6
ByLayer
 10
233.4456622002524
 20
23.5195240674655039
 30
0.0
 11
233.162786410961985
 21
23.7805709367969982
 31
0.0
  0
LINE
  5
411
100
AcDbEntity
100
AcDbLine
  8
zahn
 62
256
370
-1
  6
ByLayer
 10
233.162786410961985
 20
23.7805709367969982
 30
0.0
 11
232.8076883740110361
 21
24.0649041405250017
 31
0.0
  0
LINE
  5
412
100
AcDbEntity
100
AcDbLine
  8
zahn
 62
256
370
-1
  6
ByLayer
 10
232.8076883740110361
 20
24.0649041405250017
 30
0.0
 11
232.3759711203824736
 21
24.3634539249145057
 31
0.0
  0
LINE
  5
413
100
AcDbEntity
100
AcDbLine
  8
zahn
 62
256
370
-1
  6
ByLayer
 10
232.3759711203824736
 20
24.3634539249145057
 30
0.0
 11
231.8641693539450443
 21
24.6666674712249971
 31
0.0
  0
LINE
  5
414
100
AcDbEntity
100
AcDbLine
  8
zahn
 62
256
370
-1
  6
ByLayer
 10
231.8641693539450443
 20
24.6666674712249971
 30
0.0
 11
231.2697941819250218
 21
24.9645959314075014
 31
0.0
  0
LINE
  5
415
100
AcDbEntity
100
AcDbLine
  8
zahn
 62
256
370
-1
  6
ByLayer
 10
229.6486516165889498
 20
19.6840183624975005
 30
0.0
 11
229.6242439273319178
 21
19.7090968128175028
 31
0.0
  0
LINE
  5
416
100
AcDbEntity
100
AcDbLine
  8
zahn
 62
256
370
-1
  6
ByLayer
 10
229.6242439273319178
 20
19.7090968128175028
 30
0.0
 11
229.5558643261786074
 21
19.7887514539464995
 31
0.0
  0
LINE
  5
417
100
AcDbEntity
100
AcDbLine
  8
zahn
 62
256
370
-1
  6
ByLayer
 10
229.5558643261786074
 20
19.7887514539464995
 30
0.0
 11
229.4512825123140374
 21
19.9290198089530008
 31
0.0
  0
LINE
  5
418
100
AcDbEntity
100
AcDbLine
  8
zahn
 62
256
370
-1
  6
ByLayer
 10
229.4512825123140374
 20
19.9290198089530008
 30
0.0
 11
229.3188800771174556
 21
20.1351024758305002
 31
0.0
  0
LINE
  5
419
100
AcDbEntity
100
AcDbLine
  8
zahn
 62
256
370
-1
  6
ByLayer
 10
229.3188800771174556
 20
20.1351024758305002
 30
0.0
 11
229.1675703054135056
 21
20.4113083671415012
 31
0.0
  0
LINE
  5
41A
100
AcDbEntity
100
AcDbLine
  8
zahn
 62
256
370
-1
  6
ByLayer
 10
229.1675703054135056
 20
20.4113083671415012
 30
0.0
 11
229.0067134054754661
 21
20.7610071487975034
 31
0.0
  0
LINE
  5
41B
100
AcDbEntity
100
AcDbLine
  8
zahn
 62
256
370
-1
  6
ByLayer
 10
229.0067134054754661
 20
20.7610071487975034
 30
0.0
 11
228.846027787354501
 21
21.1865892428079974
 31
0.0
  0
LINE
  5
41C
100
AcDbEntity
100
AcDbLine
  8
zahn
 62
256
370
-1
  6
ByLayer
 10
228.846027787354501
 20
21.1865892428079974
 30
0.0
 11
228.6954980376134472
 21
21.689433707108499
 31
0.0
  0
LINE
  5
41D
100
AcDbEntity
100
AcDbLine
  8
zahn
 62
256
370
-1
  6
ByLayer
 10
228.6954980376134472
 20
21.689433707108499
 30
0.0
 11
228.5652802621424371
 21
22.269884250861999
 31
0.0
  0
LINE
  5
41E
100
AcDbEntity
100
AcDbLine
  8
zahn
 62
256
370
-1
  6
ByLayer
 10
228.5652802621424371
 20
22.269884250861999
 30
0.0
 11
228.4656054878805662
 21
22.9272335886294982
 31
0.0
  0
LINE
  5
41F
100
AcDbEntity
100
AcDbLine
  8
zahn
 62
256
370
-1
  6
ByLayer
 10
231.2697941819250218
 20
24.9645959314075014
 30
0.0
 11
231.2697941821769518
 21
24.964595930998005
 31
0.0
  0
LINE
  5
420
100
AcDbEntity
100
AcDbLine
  8
zahn
 62
256
370
-1
  6
ByLayer
 10
228.4656054878805662
 20
22.9272335886294982
 30
0.0
 11
228.4656054881954788
 21
22.9272335882830021
 31
0.0
  0
LINE
  5
421
100
AcDbEntity
100
AcDbLine
  8
zahn
 62
256
370
-1
  6
ByLayer
 10
231.2697941821769518
 20
24.964595930998005
 30
0.0
 11
228.4656054881954788
 21
22.9272335882830021
 31
0.0
  0
LINE
  5
422
100
AcDbEntity
100
AcDbLine
  8
zahn
 62
256
370
-1
  6
ByLayer
 10
229.6486516165889498
 20
19.6840183624975005
 30
0.0
 11
227.591208667261526
 21
16.8521910846444989
 31
0.0
  0
LINE
  5
423
100
AcDbEntity
100
AcDbLine
  8
zahn
 62
256
370
-1
  6
ByLayer
 10
227.591208667261526
 20
16.8521910846444989
 30
0.0
 11
227.5598152528980336
 21
16.8676545092365018
 31
0.0
  0
LINE
  5
424
100
AcDbEntity
100
AcDbLine
  8
zahn
 62
256
370
-1
  6
ByLayer
 10
227.5598152528980336
 20
16.8676545092365018
 30
0.0
 11
227.462928728541101
 21
16.9080727366629944
 31
0.0
  0
LINE
  5
425
100
AcDbEntity
100
AcDbLine
  8
zahn
 62
256
370
-1
  6
ByLayer
 10
227.462928728541101
 20
16.9080727366629944
 30
0.0
 11
227.2972080377445536
 21
16.9641906467770021
 31
0.0
  0
LINE
  5
426
100
AcDbEntity
100
AcDbLine
  8
zahn
 62
256
370
-1
  6
ByLayer
 10
227.2972080377445536
 20
16.9641906467770021
 30
0.0
 11
227.060297171934053
 21
17.0264297992419991
 31
0.0
  0
LINE
  5
427
100
AcDbEntity
100
AcDbLine
  8
zahn
 62
256
370
-1
  6
ByLayer
 10
227.060297171934053
 20
17.0264297992419991
 30
0.0
 11
226.7508524682750704
 21
17.084981629211498
 31
0.0
  0
LINE
  5
428
100
AcDbEntity
100
AcDbLine
  8
zahn
 62
256
370
-1
  6
ByLayer
 10
226.7508524682750704
 20
17.084981629211498
 30
0.0
 11
226.3685616474854214
 21
17.1299027656360039
 31
0.0
  0
LINE
  5
429
100
AcDbEntity
100
AcDbLine
  8
zahn
 62
256
370
-1
  6
ByLayer
 10
226.3685616474854214
 20
17.1299027656360039
 30
0.0
 11
225.9141544370219208
 21
17.1512117702829983
 31
0.0
  0
LINE
  5
42A
100
AcDbEntity
100
AcDbLine
  8
zahn
 62
256
370
-1
  6
ByLayer
 10
225.9141544370219208
 20
17.1512117702829983
 30
0.0
 11
225.3894046817370054
 21
17.138986584687995
 31
0.0
  0
LINE
  5
42B
100
AcDbEntity
100
AcDbLine
  8
zahn
 62
256
370
-1
  6
ByLayer
 10
225.3894046817370054
 20
17.138986584687995
 30
0.0
 11
224.797123904113505
 21
17.0834619661750011
 31
0.0
  0
LINE
  5
42C
100
AcDbEntity
100
AcDbLine
  8
zahn
 62
256
370
-1
  6
ByLayer
 10
224.797123904113505
 20
17.0834619661750011
 30
0.0
 11
224.1411463337955183
 21
16.9751261931085011
 31
0.0
  0
LINE
  5
42D
100
AcDbEntity
100
AcDbLine
  8
zahn
 62
256
370
-1
  6
ByLayer
 10
225.9334600667114046
 20
11.7501655079912499
 30
0.0
 11
225.8989730880630304
 21
11.756107920684256
 31
0.0
  0
LINE
  5
42E
100
AcDbEntity
100
AcDbLine
  8
zahn
 62
256
370
-1
  6
ByLayer
 10
225.8989730880630304
 20
11.756107920684256
 30
0.0
 11
225.7968330053294039
 21
11.7803573579512086
 31
0.0
  0
LINE
  5
42F
100
AcDbEntity
100
AcDbLine
  8
zahn
 62
256
370
-1
  6
ByLayer
 10
225.7968330053294039
 20
11.7803573579512086
 30
0.0
 11
225.6297768701743962
 21
11.8323651930503608
 31
0.0
  0
LINE
  5
430
100
AcDbEntity
100
AcDbLine
  8
zahn
 62
256
370
-1
  6
ByLayer
 10
225.6297768701743962
 20
11.8323651930503608
 30
0.0
 11
225.4015286976793959
 21
11.9212653740297547
 31
0.0
  0
LINE
  5
431
100
AcDbEntity
100
AcDbLine
  8
zahn
 62
256
370
-1
  6
ByLayer
 10
225.4015286976793959
 20
11.9212653740297547
 30
0.0
 11
225.116766771422931
 21
12.0557829817409488
 31
0.0
  0
LINE
  5
432
100
AcDbEntity
100
AcDbLine
  8
zahn
 62
256
370
-1
  6
ByLayer
 10
225.116766771422931
 20
12.0557829817409488
 30
0.0
 11
224.7810830191274363
 21
12.2441459254889402
 31
0.0
  0
LINE
  5
433
100
AcDbEntity
100
AcDbLine
  8
zahn
 62
256
370
-1
  6
ByLayer
 10
224.7810830191274363
 20
12.2441459254889402
 30
0.0
 11
224.4009347447999971
 21
12.4940004354495962
 31
0.0
  0
LINE
  5
434
100
AcDbEntity
100
AcDbLine
  8
zahn
 62
256
370
-1
  6
ByLayer
 10
224.4009347447999971
 20
12.4940004354495962
 30
0.0
 11
223.9835890587945642
 21
12.8123309856690994
 31
0.0
  0
LINE
  5
435
100
AcDbEntity
100
AcDbLine
  8
zahn
 62
256
370
-1
  6
ByLayer
 10
223.9835890587945642
 20
12.8123309856690994
 30
0.0
 11
223.5370603961760025
 21
13.2053852519289912
 31
0.0
  0
LINE
  5
436
100
AcDbEntity
100
AcDbLine
  8
zahn
 62
256
370
-1
  6
ByLayer
 10
223.5370603961760025
 20
13.2053852519289912
 30
0.0
 11
223.0700415635355967
 21
13.678604675105495
 31
0.0
  0
LINE
  5
437
100
AcDbEntity
100
AcDbLine
  8
zahn
 62
256
370
-1
  6
ByLayer
 10
224.1411463337955183
 20
16.9751261931085011
 30
0.0
 11
224.1411463342050183
 21
16.9751261929194932
 31
0.0
  0
LINE
  5
438
100
AcDbEntity
100
AcDbLine
  8
zahn
 62
256
370
-1
  6
ByLayer
 10
223.0700415635355967
 20
13.678604675105495
 30
0.0
 11
223.0700415639765879
 21
13.6786046750110053
 31
0.0
  0
LINE
  5
439
100
AcDbEntity
100
AcDbLine
  8
zahn
 62
256
370
-1
  6
ByLayer
 10
224.1411463342050183
 20
16.9751261929194932
 30
0.0
 11
223.0700415639765879
 21
13.6786046750110053
 31
0.0
  0
LINE
  5
43A
100
AcDbEntity
100
AcDbLine
  8
zahn
 62
256
370
-1
  6
ByLayer
 10
225.9334600667114046
 20
11.7501655079912499
 30
0.0
 11
225.9334600667114046
 21
8.2498344920087661
 31
0.0
  0
LINE
  5
43B
100
AcDbEntity
100
AcDbLine
  8
zahn
 62
256
370
-1
  6
ByLayer
 10
225.9334600667114046
 20
8.2498344920087661
 30
0.0
 11
225.8989730880630304
 21
8.2438920793157475
 31
0.0
  0
LINE
  5
43C
100
AcDbEntity
100
AcDbLine
  8
zahn
 62
256
370
-1
  6
ByLayer
 10
225.8989730880630304
 20
8.2438920793157475
 30
0.0
 11
225.7968330053294039
 21
8.2196426420487949
 31
0.0
  0
LINE
  5
43D
100
AcDbEntity
100
AcDbLine
  8
zahn
 62
256
370
-1
  6
ByLayer
 10
225.7968330053294039
 20
8.2196426420487949
 30
0.0
 11
225.6297768701743962
 21
8.1676348069496569
 31
0.0
  0
LINE
  5
43E
100
AcDbEntity
100
AcDbLine
  8
zahn
 62
256
370
-1
  6
ByLayer
 10
225.6297768701743962
 20
8.1676348069496569
 30
0.0
 11
225.4015286976793959
 21
8.0787346259702488
 31
0.0
  0
LINE
  5
43F
100
AcDbEntity
100
AcDbLine
  8
zahn
 62
256
370
-1
  6
ByLayer
 10
225.4015286976793959
 20
8.0787346259702488
 30
0.0
 11
225.116766771422931
 21
7.9442170182590548
 31
0.0
  0
LINE
  5
440
100
AcDbEntity
100
AcDbLine
  8
zahn
 62
256
370
-1
  6
ByLayer
 10
225.116766771422931
 20
7.9442170182590548
 30
0.0
 11
224.7810830191274363
 21
7.7558540745110633
 31
0.0
  0
LINE
  5
441
100
AcDbEntity
100
AcDbLine
  8
zahn
 62
256
370
-1
  6
ByLayer
 10
224.7810830191274363
 20
7.7558540745110633
 30
0.0
 11
224.4009347447999971
 21
7.505999564553556
 31
0.0
  0
LINE
  5
442
100
AcDbEntity
100
AcDbLine
  8
zahn
 62
256
370
-1
  6
ByLayer
 10
224.4009347447999971
 20
7.505999564553556
 30
0.0
 11
223.9835890587945642
 21
7.1876690143309041
 31
0.0
  0
LINE
  5
443
100
AcDbEntity
100
AcDbLine
  8
zahn
 62
256
370
-1
  6
ByLayer
 10
223.9835890587945642
 20
7.1876690143309041
 30
0.0
 11
223.5370603961760025
 21
6.7946147480710142
 31
0.0
  0
LINE
  5
444
100
AcDbEntity
100
AcDbLine
  8
zahn
 62
256
370
-1
  6
ByLayer
 10
223.5370603961760025
 20
6.7946147480710142
 30
0.0
 11
223.0700415635355967
 21
6.3213953248945085
 31
0.0
  0
LINE
  5
445
100
AcDbEntity
100
AcDbLine
  8
zahn
 62
256
370
-1
  6
ByLayer
 10
227.591208667261526
 20
3.1478089153555056
 30
0.0
 11
227.5598152528980336
 21
3.1323454907635071
 31
0.0
  0
LINE
  5
446
100
AcDbEntity
100
AcDbLine
  8
zahn
 62
256
370
-1
  6
ByLayer
 10
227.5598152528980336
 20
3.1323454907635071
 30
0.0
 11
227.462928728541101
 21
3.0919272633370145
 31
0.0
  0
LINE
  5
447
100
AcDbEntity
100
AcDbLine
  8
zahn
 62
256
370
-1
  6
ByLayer
 10
227.462928728541101
 20
3.0919272633370145
 30
0.0
 11
227.2972080377445536
 21
3.0358093532230086
 31
0.0
  0
LINE
  5
448
100
AcDbEntity
100
AcDbLine
  8
zahn
 62
256
370
-1
  6
ByLayer
 10
227.2972080377445536
 20
3.0358093532230086
 30
0.0
 11
227.060297171934053
 21
2.9735702007580045
 31
0.0
  0
LINE
  5
449
100
AcDbEntity
100
AcDbLine
  8
zahn
 62
256
370
-1
  6
ByLayer
 10
227.060297171934053
 20
2.9735702007580045
 30
0.0
 11
226.7508524682750704
 21
2.91501837078851
 31
0.0
  0
LINE
  5
44A
100
AcDbEntity
100
AcDbLine
  8
zahn
 62
256
370
-1
  6
ByLayer
 10
226.7508524682750704
 20
2.91501837078851
 30
0.0
 11
226.3685616474854214
 21
2.8700972343639988
 31
0.0
  0
LINE
  5
44B
100
AcDbEntity
100
AcDbLine
  8
zahn
 62
256
370
-1
  6
ByLayer
 10
226.3685616474854214
 20
2.8700972343639988
 30
0.0
 11
225.9141544370219208
 21
2.848788229717008
 31
0.0
  0
LINE
  5
44C
100
AcDbEntity
100
AcDbLine
  8
zahn
 62
256
370
-1
  6
ByLayer
 10
225.9141544370219208
 20
2.848788229717008
 30
0.0
 11
225.3894046817370054
 21
2.8610134153120095
 31
0.0
  0
LINE
  5
44D
100
AcDbEntity
100
AcDbLine
  8
zahn
 62
256
370
-1
  6
ByLayer
 10
225.3894046817370054
 20
2.8610134153120095
 30
0.0
 11
224.797123904113505
 21
2.9165380338250024
 31
0.0
  0
LINE
  5
44E
100
AcDbEntity
100
AcDbLine
  8
zahn
 62
256
370
-1
  6
ByLayer
 10
224.797123904113505
 20
2.9165380338250024
 30
0.0
 11
224.1411463337955183
 21
3.0248738068915015
 31
0.0
  0
LINE
  5
44F
100
AcDbEntity
100
AcDbLine
  8
zahn
 62
256
370
-1
  6
ByLayer
 10
223.0700415635355967
 20
6.3213953248945085
 30
0.0
 11
223.0700415639765879
 21
6.3213953249889983
 31
0.0
  0
LINE
  5
450
100
AcDbEntity
100
AcDbLine
  8
zahn
 62
256
370
-1
  6
ByLayer
 10
224.1411463337955183
 20
3.0248738068915015
 30
0.0
 11
224.1411463342050183
 21
3.0248738070805112
 31
0.0
  0
LINE
  5
451
100
AcDbEntity
100
AcDbLine
  8
zahn
 62
256
370
-1
  6
ByLayer
 10
223.0700415639765879
 20
6.3213953249889983
 30
0.0
 11
224.1411463342050183
 21
3.0248738070805112
 31
0.0
  0
LINE
  5
452
100
AcDbEntity
100
AcDbLine
  8
zahn
 62
256
370
-1
  6
ByLayer
 10
227.591208667261526
 20
3.1478089153555056
 30
0.0
 11
229.6486516165889498
 21
0.3159816375025084
 31
0.0
  0
LINE
  5
453
100
AcDbEntity
100
AcDbLine
  8
zahn
 62
256
370
-1
  6
ByLayer
 10
229.6486516165889498
 20
0.3159816375025084
 30
0.0
 11
229.6242439273319178
 21
0.2909031871825043
 31
0.0
  0
LINE
  5
454
100
AcDbEntity
100
AcDbLine
  8
zahn
 62
256
370
-1
  6
ByLayer
 10
229.6242439273319178
 20
0.2909031871825043
 30
0.0
 11
229.5558643261786074
 21
0.2112485460535094
 31
0.0
  0
LINE
  5
455
100
AcDbEntity
100
AcDbLine
  8
zahn
 62
256
370
-1
  6
ByLayer
 10
229.5558643261786074
 20
0.2112485460535094
 30
0.0
 11
229.4512825123140374
 21
0.0709801910470045
 31
0.0
  0
LINE
  5
456
100
AcDbEntity
100
AcDbLine
  8
zahn
 62
256
370
-1
  6
ByLayer
 10
229.4512825123140374
 20
0.0709801910470045
 30
0.0
 11
229.3188800771174556
 21
-0.1351024758304913
 31
0.0
  0
LINE
  5
457
100
AcDbEntity
100
AcDbLine
  8
zahn
 62
256
370
-1
  6
ByLayer
 10
229.3188800771174556
 20
-0.1351024758304913
 30
0.0
 11
229.1675703054135056
 21
-0.4113083671414941
 31
0.0
  0
LINE
  5
458
100
AcDbEntity
100
AcDbLine
  8
zahn
 62
256
370
-1
  6
ByLayer
 10
229.1675703054135056
 20
-0.4113083671414941
 30
0.0
 11
229.0067134054754661
 21
-0.7610071487974981
 31
0.0
  0
LINE
  5
459
100
AcDbEntity
100
AcDbLine
  8
zahn
 62
256
370
-1
  6
ByLayer
 10
229.0067134054754661
 20
-0.7610071487974981
 30
0.0
 11
228.846027787354501
 21
-1.1865892428079938
 31
0.0
  0
LINE
  5
45A
100
AcDbEntity
100
AcDbLine
  8
zahn
 62
256
370
-1
  6
ByLayer
 10
228.846027787354501
 20
-1.1865892428079938
 30
0.0
 11
228.6954980376134472
 21
-1.6894337071084955
 31
0.0
  0
LINE
  5
45B
100
AcDbEntity
100
AcDbLine
  8
zahn
 62
256
370
-1
  6
ByLayer
 10
228.6954980376134472
 20
-1.6894337071084955
 30
0.0
 11
228.5652802621424371
 21
-2.2698842508619954
 31
0.0
  0
LINE
  5
45C
100
AcDbEntity
100
AcDbLine
  8
zahn
 62
256
370
-1
  6
ByLayer
 10
228.5652802621424371
 20
-2.2698842508619954
 30
0.0
 11
228.4656054878803388
 21
-2.9272335886294911
 31
0.0
  0
LINE
  5
45D
100
AcDbEntity
100
AcDbLine
  8
zahn
 62
256
370
-1
  6
ByLayer
 10
233.988693797584574
 20
-2.8372435803394946
 30
0.0
 11
233.972385164803427
 21
-2.8682063395864983
 31
0.0
  0
LINE
  5
45E
100
AcDbEntity
100
AcDbLine
  8
zahn
 62
256
370
-1
  6
ByLayer
 10
233.972385164803427
 20
-2.8682063395864983
 30
0.0
 11
233.9177595580858906
 21
-2.9578538426434999
 31
0.0
  0
LINE
  5
45F
100
AcDbEntity
100
AcDbLine
  8
zahn
 62
256
370
-1
  6
ByLayer
 10
233.9177595580858906
 20
-2.9578538426434999
 30
0.0
 11
233.8166739828345726
 21
-3.1006623636664994
 31
0.0
  0
LINE
  5
460
100
AcDbEntity
100
AcDbLine
  8
zahn
 62
256
370
-1
  6
ByLayer
 10
233.8166739828345726
 20
-3.1006623636664994
 30
0.0
 11
233.6615923221913818
 21
-3.2902676087615053
 31
0.0
  0
LINE
  5
461
100
AcDbEntity
100
AcDbLine
  8
zahn
 62
256
370
-1
  6
ByLayer
 10
233.6615923221913818
 20
-3.2902676087615053
 30
0.0
 11
233.4456622002524
 21
-3.5195240674655004
 31
0.0
  0
LINE
  5
462
100
AcDbEntity
100
AcDbLine
  8
zahn
 62
256
370
-1
  6
ByLayer
 10
233.4456622002524
 20
-3.5195240674655004
 30
0.0
 11
233.162786410961985
 21
-3.7805709367969946
 31
0.0
  0
LINE
  5
463
100
AcDbEntity
100
AcDbLine
  8
zahn
 62
256
370
-1
  6
ByLayer
 10
233.162786410961985
 20
-3.7805709367969946
 30
0.0
 11
232.8076883740110361
 21
-4.0649041405249946
 31
0.0
  0
LINE
  5
464
100
AcDbEntity
100
AcDbLine
  8
zahn
 62
256
370
-1
  6
ByLayer
 10
232.8076883740110361
 20
-4.0649041405249946
 30
0.0
 11
232.3759711203825873
 21
-4.3634539249145039
 31
0.0
  0
LINE
  5
465
100
AcDbEntity
100
AcDbLine
  8
zahn
 62
256
370
-1
  6
ByLayer
 10
232.3759711203825873
 20
-4.3634539249145039
 30
0.0
 11
231.8641693539450443
 21
-4.6666674712249989
 31
0.0
  0
LINE
  5
466
100
AcDbEntity
100
AcDbLine
  8
zahn
 62
256
370
-1
  6
ByLayer
 10
231.8641693539450443
 20
-4.6666674712249989
 30
0.0
 11
231.2697941819250218
 21
-4.9645959314074943
 31
0.0
  0
LINE
  5
467
100
AcDbEntity
100
AcDbLine
  8
zahn
 62
256
370
-1
  6
ByLayer
 10
228.4656054878803388
 20
-2.9272335886294911
 30
0.0
 11
228.4656054881954788
 21
-2.9272335882829967
 31
0.0
  0
LINE
  5
468
100
AcDbEntity
100
AcDbLine
  8
zahn
 62
256
370
-1
  6
ByLayer
 10
231.2697941819250218
 20
-4.9645959314074943
 30
0.0
 11
231.2697941821769518
 21
-4.964595930998005
 31
0.0
  0
LINE
  5
469
100
AcDbEntity
100
AcDbLine
  8
zahn
 62
256
370
-1
  6
ByLayer
 10
228.4656054881954788
 20
-2.9272335882829967
 30
0.0
 11
231.2697941821769518
 21
-4.964595930998005
 31
0.0
  0
LINE
  5
46A
100
AcDbEntity
100
AcDbLine
  8
zahn
 62
256
370
-1
  6
ByLayer
 10
233.988693797584574
 20
-2.8372435803394946
 30
0.0
 11
237.3177064195324419
 21
-3.9189053502170008
 31
0.0
  0
LINE
  5
46B
100
AcDbEntity
100
AcDbLine
  8
zahn
 62
256
370
-1
  6
ByLayer
 10
237.3177064195324419
 20
-3.9189053502170008
 30
0.0
 11
237.3127009273603107
 21
-3.9535407224990013
 31
0.0
  0
LINE
  5
46C
100
AcDbEntity
100
AcDbLine
  8
zahn
 62
256
370
-1
  6
ByLayer
 10
237.3127009273603107
 20
-3.9535407224990013
 30
0.0
 11
237.3042004913133951
 21
-4.0581752019695028
 31
0.0
  0
LINE
  5
46D
100
AcDbEntity
100
AcDbLine
  8
zahn
 62
256
370
-1
  6
ByLayer
 10
237.3042004913133951
 20
-4.0581752019695028
 30
0.0
 11
237.3020396970117645
 21
-4.2331263327889985
 31
0.0
  0
LINE
  5
46E
100
AcDbEntity
100
AcDbLine
  8
zahn
 62
256
370
-1
  6
ByLayer
 10
237.3020396970117645
 20
-4.2331263327889985
 30
0.0
 11
237.31605622918687
 21
-4.4776749113045007
 31
0.0
  0
LINE
  5
46F
100
AcDbEntity
100
AcDbLine
  8
zahn
 62
256
370
-1
  6
ByLayer
 10
237.31605622918687
 20
-4.4776749113045007
 30
0.0
 11
237.3559938019973288
 21
-4.7900678236640015
 31
0.0
  0
LINE
  5
470
100
AcDbEntity
100
AcDbLine
  8
zahn
 62
256
370
-1
  6
ByLayer
 10
237.3559938019973288
 20
-4.7900678236640015
 30
0.0
 11
237.4314056228810159
 21
-5.1675293944474987
 31
0.0
  0
LINE
  5
471
100
AcDbEntity
100
AcDbLine
  8
zahn
 62
256
370
-1
  6
ByLayer
 10
237.4314056228810159
 20
-5.1675293944474987
 30
0.0
 11
237.5515591055592495
 21
-5.6062811775814989
 31
0.0
  0
LINE
  5
472
100
AcDbEntity
100
AcDbLine
  8
zahn
 62
256
370
-1
  6
ByLayer
 10
237.5515591055592495
 20
-5.6062811775814989
 30
0.0
 11
237.7253425401797813
 21
-6.1015700616470063
 31
0.0
  0
LINE
  5
473
100
AcDbEntity
100
AcDbLine
  8
zahn
 62
256
370
-1
  6
ByLayer
 10
237.7253425401797813
 20
-6.1015700616470063
 30
0.0
 11
237.9611744161350089
 21
-6.6477045039515019
 31
0.0
  0
LINE
  5
474
100
AcDbEntity
100
AcDbLine
  8
zahn
 62
256
370
-1
  6
ByLayer
 10
237.9611744161350089
 20
-6.6477045039515019
 30
0.0
 11
238.2669160762155798
 21
-7.2380986517914998
 31
0.0
  0
LINE
  5
475
100
AcDbEntity
100
AcDbLine
  8
zahn
 62
256
370
-1
  6
ByLayer
 10
242.6822935804675581
 20
-3.9189053502170044
 30
0.0
 11
242.6872990726396893
 21
-3.9535407224990031
 31
0.0
  0
LINE
  5
476
100
AcDbEntity
100
AcDbLine
  8
zahn
 62
256
370
-1
  6
ByLayer
 10
242.6872990726396893
 20
-3.9535407224990031
 30
0.0
 11
242.6957995086866049
 21
-4.0581752019695028
 31
0.0
  0
LINE
  5
477
100
AcDbEntity
100
AcDbLine
  8
zahn
 62
256
370
-1
  6
ByLayer
 10
242.6957995086866049
 20
-4.0581752019695028
 30
0.0
 11
242.6979603029882355
 21
-4.2331263327890003
 31
0.0
  0
LINE
  5
478
100
AcDbEntity
100
AcDbLine
  8
zahn
 62
256
370
-1
  6
ByLayer
 10
242.6979603029882355
 20
-4.2331263327890003
 30
0.0
 11
242.68394377081313
 21
-4.4776749113045042
 31
0.0
  0
LINE
  5
479
100
AcDbEntity
100
AcDbLine
  8
zahn
 62
256
370
-1
  6
ByLayer
 10
242.68394377081313
 20
-4.4776749113045042
 30
0.0
 11
242.6440061980026712
 21
-4.7900678236640051
 31
0.0
  0
LINE
  5
47A
100
AcDbEntity
100
AcDbLine
  8
zahn
 62
256
370
-1
  6
ByLayer
 10
242.6440061980026712
 20
-4.7900678236640051
 30
0.0
 11
242.5685943771189841
 21
-5.1675293944475023
 31
0.0
  0
LINE
  5
47B
100
AcDbEntity
100
AcDbLine
  8
zahn
 62
256
370
-1
  6
ByLayer
 10
242.5685943771189841
 20
-5.1675293944475023
 30
0.0
 11
242.4484408944407505
 21
-5.6062811775814989
 31
0.0
  0
LINE
  5
47C
100
AcDbEntity
100
AcDbLine
  8
zahn
 62
256
370
-1
  6
ByLayer
 10
242.4484408944407505
 20
-5.6062811775814989
 30
0.0
 11
242.2746574598202187
 21
-6.1015700616470063
 31
0.0
  0
LINE
  5
47D
100
AcDbEntity
100
AcDbLine
  8
zahn
 62
256
370
-1
  6
ByLayer
 10
242.2746574598202187
 20
-6.1015700616470063
 30
0.0
 11
242.0388255838649911
 21
-6.6477045039515019
 31
0.0
  0
LINE
  5
47E
100
AcDbEntity
100
AcDbLine
  8
zahn
 62
256
370
-1
  6
ByLayer
 10
242.0388255838649911
 20
-6.6477045039515019
 30
0.0
 11
241.7330839237844202
 21
-7.2380986517914998
 31
0.0
  0
LINE
  5
47F
100
AcDbEntity
100
AcDbLine
  8
zahn
 62
256
370
-1
  6
ByLayer
 10
238.2669160762155798
 20
-7.2380986517914998
 30
0.0
 11
238.2669160762595766
 21
-7.238098651350505
 31
0.0
  0
LINE
  5
480
100
AcDbEntity
100
AcDbLine
  8
zahn
 62
256
370
-1
  6
ByLayer
 10
241.7330839237844202
 20
-7.2380986517914998
 30
0.0
 11
241.7330839237404234
 21
-7.238098651350505
 31
0.0
  0
LINE
  5
481
100
AcDbEntity
100
AcDbLine
  8
zahn
 62
256
370
-1
  6
ByLayer
 10
238.2669160762595766
 20
-7.238098651350505
 30
0.0
 11
241.7330839237404234
 21
-7.238098651350505
 31
0.0
  0
LINE
  5
482
100
AcDbEntity
100
AcDbLine
  8
zahn
 62
256
370
-1
  6
ByLayer
 10
242.6822935804675581
 20
-3.9189053502170044
 30
0.0
 11
246.011306202415426
 21
-2.8372435803395071
 31
0.0
  0
LINE
  5
483
100
AcDbEntity
100
AcDbLine
  8
zahn
 62
256
370
-1
  6
ByLayer
 10
246.011306202415426
 20
-2.8372435803395071
 30
0.0
 11
246.027614835196573
 21
-2.8682063395865072
 31
0.0
  0
LINE
  5
484
100
AcDbEntity
100
AcDbLine
  8
zahn
 62
256
370
-1
  6
ByLayer
 10
246.027614835196573
 20
-2.8682063395865072
 30
0.0
 11
246.0822404419141094
 21
-2.9578538426435053
 31
0.0
  0
LINE
  5
485
100
AcDbEntity
100
AcDbLine
  8
zahn
 62
256
370
-1
  6
ByLayer
 10
246.0822404419141094
 20
-2.9578538426435053
 30
0.0
 11
246.1833260171654274
 21
-3.1006623636665012
 31
0.0
  0
LINE
  5
486
100
AcDbEntity
100
AcDbLine
  8
zahn
 62
256
370
-1
  6
ByLayer
 10
246.1833260171654274
 20
-3.1006623636665012
 30
0.0
 11
246.3384076778086182
 21
-3.2902676087615106
 31
0.0
  0
LINE
  5
487
100
AcDbEntity
100
AcDbLine
  8
zahn
 62
256
370
-1
  6
ByLayer
 10
246.3384076778086182
 20
-3.2902676087615106
 30
0.0
 11
246.5543377997476
 21
-3.5195240674655075
 31
0.0
  0
LINE
  5
488
100
AcDbEntity
100
AcDbLine
  8
zahn
 62
256
370
-1
  6
ByLayer
 10
246.5543377997476
 20
-3.5195240674655075
 30
0.0
 11
246.837213589038015
 21
-3.7805709367970071
 31
0.0
  0
LINE
  5
489
100
AcDbEntity
100
AcDbLine
  8
zahn
 62
256
370
-1
  6
ByLayer
 10
246.837213589038015
 20
-3.7805709367970071
 30
0.0
 11
247.1923116259889639
 21
-4.0649041405249999
 31
0.0
  0
LINE
  5
48A
100
AcDbEntity
100
AcDbLine
  8
zahn
 62
256
370
-1
  6
ByLayer
 10
247.1923116259889639
 20
-4.0649041405249999
 30
0.0
 11
247.6240288796174127
 21
-4.3634539249145057
 31
0.0
  0
LINE
  5
48B
100
AcDbEntity
100
AcDbLine
  8
zahn
 62
256
370
-1
  6
ByLayer
 10
247.6240288796174127
 20
-4.3634539249145057
 30
0.0
 11
248.1358306460549557
 21
-4.6666674712250042
 31
0.0
  0
LINE
  5
48C
100
AcDbEntity
100
AcDbLine
  8
zahn
 62
256
370
-1
  6
ByLayer
 10
248.1358306460549557
 20
-4.6666674712250042
 30
0.0
 11
248.7302058180749782
 21
-4.9645959314075014
 31
0.0
  0
LINE
  5
48D
100
AcDbEntity
100
AcDbLine
  8
zahn
 62
256
370
-1
  6
ByLayer
 10
250.3513483834110502
 20
0.315981637502496
 30
0.0
 11
250.3757560726680822
 21
0.2909031871824901
 31
0.0
  0
LINE
  5
48E
100
AcDbEntity
100
AcDbLine
  8
zahn
 62
256
370
-1
  6
ByLayer
 10
250.3757560726680822
 20
0.2909031871824901
 30
0.0
 11
250.4441356738213926
 21
0.2112485460534987
 31
0.0
  0
LINE
  5
48F
100
AcDbEntity
100
AcDbLine
  8
zahn
 62
256
370
-1
  6
ByLayer
 10
250.4441356738213926
 20
0.2112485460534987
 30
0.0
 11
250.5487174876859626
 21
0.070980191046992
 31
0.0
  0
LINE
  5
490
100
AcDbEntity
100
AcDbLine
  8
zahn
 62
256
370
-1
  6
ByLayer
 10
250.5487174876859626
 20
0.070980191046992
 30
0.0
 11
250.6811199228825444
 21
-0.1351024758305091
 31
0.0
  0
LINE
  5
491
100
AcDbEntity
100
AcDbLine
  8
zahn
 62
256
370
-1
  6
ByLayer
 10
250.6811199228825444
 20
-0.1351024758305091
 30
0.0
 11
250.8324296945864944
 21
-0.411308367141503
 31
0.0
  0
LINE
  5
492
100
AcDbEntity
100
AcDbLine
  8
zahn
 62
256
370
-1
  6
ByLayer
 10
250.8324296945864944
 20
-0.411308367141503
 30
0.0
 11
250.9932865945245339
 21
-0.761007148797507
 31
0.0
  0
LINE
  5
493
100
AcDbEntity
100
AcDbLine
  8
zahn
 62
256
370
-1
  6
ByLayer
 10
250.9932865945245339
 20
-0.761007148797507
 30
0.0
 11
251.153972212645499
 21
-1.1865892428080063
 31
0.0
  0
LINE
  5
494
100
AcDbEntity
100
AcDbLine
  8
zahn
 62
256
370
-1
  6
ByLayer
 10
251.153972212645499
 20
-1.1865892428080063
 30
0.0
 11
251.3045019623865528
 21
-1.6894337071085079
 31
0.0
  0
LINE
  5
495
100
AcDbEntity
100
AcDbLine
  8
zahn
 62
256
370
-1
  6
ByLayer
 10
251.3045019623865528
 20
-1.6894337071085079
 30
0.0
 11
251.4347197378575629
 21
-2.2698842508620078
 31
0.0
  0
LINE
  5
496
100
AcDbEntity
100
AcDbLine
  8
zahn
 62
256
370
-1
  6
ByLayer
 10
251.4347197378575629
 20
-2.2698842508620078
 30
0.0
 11
251.5343945121194338
 21
-2.9272335886295089
 31
0.0
  0
LINE
  5
497
100
AcDbEntity
100
AcDbLine
  8
zahn
 62
256
370
-1
  6
ByLayer
 10
248.7302058180749782
 20
-4.9645959314075014
 30
0.0
 11
248.7302058178230482
 21
-4.9645959309980121
 31
0.0
  0
LINE
  5
498
100
AcDbEntity
100
AcDbLine
  8
zahn
 62
256
370
-1
  6
ByLayer
 10
251.5343945121194338
 20
-2.9272335886295089
 30
0.0
 11
251.5343945118045212
 21
-2.9272335882830145
 31
0.0
  0
LINE
  5
499
100
AcDbEntity
100
AcDbLine
  8
zahn
 62
256
370
-1
  6
ByLayer
 10
248.7302058178230482
 20
-4.9645959309980121
 30
0.0
 11
251.5343945118045212
 21
-2.9272335882830145
 31
0.0
  0
LINE
  5
49A
100
AcDbEntity
100
AcDbLine
  8
zahn
 62
256
370
-1
  6
ByLayer
 10
250.3513483834110502
 20
0.315981637502496
 30
0.0
 11
252.408791332738474
 21
3.1478089153555002
 31
0.0
  0
LINE
  5
49B
100
AcDbEntity
100
AcDbLine
  8
zahn
 62
256
370
-1
  6
ByLayer
 10
252.408791332738474
 20
3.1478089153555002
 30
0.0
 11
252.4401847471019664
 21
3.1323454907634902
 31
0.0
  0
LINE
  5
49C
100
AcDbEntity
100
AcDbLine
  8
zahn
 62
256
370
-1
  6
ByLayer
 10
252.4401847471019664
 20
3.1323454907634902
 30
0.0
 11
252.537071271458899
 21
3.0919272633370021
 31
0.0
  0
LINE
  5
49D
100
AcDbEntity
100
AcDbLine
  8
zahn
 62
256
370
-1
  6
ByLayer
 10
252.537071271458899
 20
3.0919272633370021
 30
0.0
 11
252.7027919622554464
 21
3.0358093532229971
 31
0.0
  0
LINE
  5
49E
100
AcDbEntity
100
AcDbLine
  8
zahn
 62
256
370
-1
  6
ByLayer
 10
252.7027919622554464
 20
3.0358093532229971
 30
0.0
 11
252.939702828065947
 21
2.9735702007579929
 31
0.0
  0
LINE
  5
49F
100
AcDbEntity
100
AcDbLine
  8
zahn
 62
256
370
-1
  6
ByLayer
 10
252.939702828065947
 20
2.9735702007579929
 30
0.0
 11
253.2491475317249296
 21
2.9150183707884922
 31
0.0
  0
LINE
  5
4A0
100
AcDbEntity
100
AcDbLine
  8
zahn
 62
256
370
-1
  6
ByLayer
 10
253.2491475317249296
 20
2.9150183707884922
 30
0.0
 11
253.6314383525145786
 21
2.8700972343639917
 31
0.0
  0
LINE
  5
4A1
100
AcDbEntity
100
AcDbLine
  8
zahn
 62
256
370
-1
  6
ByLayer
 10
253.6314383525145786
 20
2.8700972343639917
 30
0.0
 11
254.0858455629780792
 21
2.8487882297169875
 31
0.0
  0
LINE
  5
4A2
100
AcDbEntity
100
AcDbLine
  8
zahn
 62
256
370
-1
  6
ByLayer
 10
254.0858455629780792
 20
2.8487882297169875
 30
0.0
 11
254.6105953182629946
 21
2.8610134153120041
 31
0.0
  0
LINE
  5
4A3
100
AcDbEntity
100
AcDbLine
  8
zahn
 62
256
370
-1
  6
ByLayer
 10
254.6105953182629946
 20
2.8610134153120041
 30
0.0
 11
255.202876095886495
 21
2.91653803382499
 31
0.0
  0
LINE
  5
4A4
100
AcDbEntity
100
AcDbLine
  8
zahn
 62
256
370
-1
  6
ByLayer
 10
255.202876095886495
 20
2.91653803382499
 30
0.0
 11
255.8588536662044817
 21
3.0248738068914882
 31
0.0
  0
LINE
  5
4A5
100
AcDbEntity
100
AcDbLine
  8
zahn
 62
256
370
-1
  6
ByLayer
 10
254.0665399332885954
 20
8.249834492008743
 30
0.0
 11
254.1010269119369696
 21
8.2438920793157244
 31
0.0
  0
LINE
  5
4A6
100
AcDbEntity
100
AcDbLine
  8
zahn
 62
256
370
-1
  6
ByLayer
 10
254.1010269119369696
 20
8.2438920793157244
 30
0.0
 11
254.2031669946705961
 21
8.2196426420487896
 31
0.0
  0
LINE
  5
4A7
100
AcDbEntity
100
AcDbLine
  8
zahn
 62
256
370
-1
  6
ByLayer
 10
254.2031669946705961
 20
8.2196426420487896
 30
0.0
 11
254.3702231298256038
 21
8.1676348069496321
 31
0.0
  0
LINE
  5
4A8
100
AcDbEntity
100
AcDbLine
  8
zahn
 62
256
370
-1
  6
ByLayer
 10
254.3702231298256038
 20
8.1676348069496321
 30
0.0
 11
254.5984713023206041
 21
8.0787346259702382
 31
0.0
  0
LINE
  5
4A9
100
AcDbEntity
100
AcDbLine
  8
zahn
 62
256
370
-1
  6
ByLayer
 10
254.5984713023206041
 20
8.0787346259702382
 30
0.0
 11
254.883233228577069
 21
7.9442170182590495
 31
0.0
  0
LINE
  5
4AA
100
AcDbEntity
100
AcDbLine
  8
zahn
 62
256
370
-1
  6
ByLayer
 10
254.883233228577069
 20
7.9442170182590495
 30
0.0
 11
255.2189169808725637
 21
7.7558540745110438
 31
0.0
  0
LINE
  5
4AB
100
AcDbEntity
100
AcDbLine
  8
zahn
 62
256
370
-1
  6
ByLayer
 10
255.2189169808725637
 20
7.7558540745110438
 30
0.0
 11
255.5990652552000029
 21
7.5059995645503887
 31
0.0
  0
LINE
  5
4AC
100
AcDbEntity
100
AcDbLine
  8
zahn
 62
256
370
-1
  6
ByLayer
 10
255.5990652552000029
 20
7.5059995645503887
 30
0.0
 11
256.0164109412054358
 21
7.1876690143309059
 31
0.0
  0
LINE
  5
4AD
100
AcDbEntity
100
AcDbLine
  8
zahn
 62
256
370
-1
  6
ByLayer
 10
256.0164109412054358
 20
7.1876690143309059
 30
0.0
 11
256.4629396038239975
 21
6.794614748071
 31
0.0
  0
LINE
  5
4AE
100
AcDbEntity
100
AcDbLine
  8
zahn
 62
256
370
-1
  6
ByLayer
 10
256.4629396038239975
 20
6.794614748071
 30
0.0
 11
256.9299584364644033
 21
6.3213953248944943
 31
0.0
  0
LINE
  5
4AF
100
AcDbEntity
100
AcDbLine
  8
zahn
 62
256
370
-1
  6
ByLayer
 10
255.8588536662044817
 20
3.0248738068914882
 30
0.0
 11
255.8588536657949817
 21
3.0248738070804899
 31
0.0
  0
LINE
  5
4B0
100
AcDbEntity
100
AcDbLine
  8
zahn
 62
256
370
-1
  6
ByLayer
 10
256.9299584364644033
 20
6.3213953248944943
 30
0.0
 11
256.9299584360234121
 21
6.3213953249889769
 31
0.0
  0
LINE
  5
4B1
100
AcDbEntity
100
AcDbLine
  8
zahn
 62
256
370
-1
  6
ByLayer
 10
255.8588536657949817
 20
3.0248738070804899
 30
0.0
 11
256.9299584360234121
 21
6.3213953249889769
 31
0.0
  0
INSERT
  5
4B2
100
AcDbEntity
100
AcDbBlockReference
  8
0
 62
256
370
-1
  6
ByLayer
  2
HALTER
 10
206.042928168759687
 20
147.1192443396265901
 30
0.0
 41
0.75
 42
0.75
 43
1.0
 50
50.0
  0
INSERT
  5
4B3
100
AcDbEntity
100
AcDbBlockReference
  8
0
 62
256
370
-1
  6
ByLayer
  2
HALTER
 10
227.4640633756374939
 20
127.8398539926324702
 30
0.0
 41
0.75
 42
0.75
 43
1.0
 50
50.0
  0
INSERT
  5
4B4
100
AcDbEntity
100
AcDbBlockReference
  8
0
 62
256
370
-1
  6
ByLayer
  2
HALTER
 10
247.4640633756374939
 20
97.8398539926324986
 30
0.0
 41
0.75
 42
0.75
 43
1.0
 50
50.0
  0
INSERT
  5
4B5
100
AcDbEntity
100
AcDbBlockReference
  8
0
 62
256
370
-1
  6
ByLayer
  2
HALTER
 10
267.4640633756373518
 20
67.8398539926323991
 30
0.0
 41
0.75
 42
0.75
 43
1.0
 50
50.0
  0
INSERT
  5
4B6
100
AcDbEntity
100
AcDbBlockReference
  8
0
 62
256
370
-1
  6
ByLayer
  2
HALTER
 10
287.4640633756374655
 20
47.8398539926324275
 30
0.0
 41
0.75
 42
0.75
 43
1.0
 50
50.0
  0
ENDSEC
  0
SECTION
  2
OBJECTS
  0
DICTIONARY
  5
C
100
AcDbDictionary
280
0
281
1
  3
ACAD_GROUP
350
D
  3
ACAD_LAYOUT
350
1A
  3
ACAD_MLINESTYLE
350
17
  3
ACAD_PLOTSETTINGS
350
19
  3
ACAD_PLOTSTYLENAME
350
E
  3
AcDbVariableDictionary
350
4B7
  0
DICTIONARY
  5
D
100
AcDbDictionary
280
0
281
1
  0
ACDBDICTIONARYWDFLT
  5
E
100
AcDbDictionary
281
1
  3
Normal
350
F
100
AcDbDictionaryWithDefault
340
F
  0
ACDBPLACEHOLDER
  5
F
  0
DICTIONARY
  5
17
100
AcDbDictionary
280
0
281
1
  3
Standard
350
18
  0
MLINESTYLE
  5
18
100
AcDbMlineStyle
  2
STANDARD
 70
0
  3

 62
256
 51
90.0
 52
90.0
 71
2
 49
0.5
 62
256
  6
BYLAYER
 49
-0.5
 62
256
  6
BYLAYER
  0
DICTIONARY
  5
19
100
AcDbDictionary
280
0
281
1
  0
DICTIONARY
  5
1A
100
AcDbDictionary
281
1
  3
Layout1
350
1E
  3
Layout2
350
26
  3
Model
350
22
  0
LAYOUT
  5
1E
100
AcDbPlotSettings
  1

  2
C:\Program Files\AutoCAD 2002\plotters\DWF ePlot (optimized for plotting).pc3
  4

  6

 40
0.0
 41
0.0
 42
0.0
 43
0.0
 44
0.0
 45
0.0
 46
0.0
 47
0.0
 48
0.0
 49
0.0
140
0.0
141
0.0
142
1.0
143
1.0
 70
688
 72
0
 73
0
 74
5
  7

 75
16
147
1.0
148
0.0
149
0.0
100
AcDbLayout
  1
Layout1
 70
1
 71
1
 10
0.0
 20
0.0
 11
420.0
 21
297.0
 12
0.0
 22
0.0
 32
0.0
 14
100000000000000000000.0
 24
100000000000000000000.0
 34
100000000000000000000.0
 15
-100000000000000000000.0
 25
-100000000000000000000.0
 35
-100000000000000000000.0
146
0.0
 13
0.0
 23
0.0
 33
0.0
 16
1.0
 26
0.0
 36
0.0
 17
0.0
 27
1.0
 37
0.0
 76
0
330
1B
  0
LAYOUT
  5
22
100
AcDbPlotSettings
  1

  2
C:\Program Files\AutoCAD 2002\plotters\DWF ePlot (optimized for plotting).pc3
  4

  6

 40
0.0
 41
0.0
 42
0.0
 43
0.0
 44
0.0
 45
0.0
 46
0.0
 47
0.0
 48
0.0
 49
0.0
140
0.0
141
0.0
142
1.0
143
1.0
 70
1712
 72
0
 73
0
 74
0
  7

 75
0
147
1.0
148
0.0
149
0.0
100
AcDbLayout
  1
Model
 70
1
 71
0
 10
0.0
 20
0.0
 11
12.0
 21
9.0
 12
0.0
 22
0.0
 32
0.0
 14
0.0
 24
0.0
 34
0.0
 15
0.0
 25
0.0
 35
0.0
146
0.0
 13
0.0
 23
0.0
 33
0.0
 16
1.0
 26
0.0
 36
0.0
 17
0.0
 27
1.0
 37
0.0
 76
0
330
1F
  0
LAYOUT
  5
26
100
AcDbPlotSettings
  1

  2
C:\Program Files\AutoCAD 2002\plotters\DWF ePlot (optimized for plotting).pc3
  4

  6

 40
0.0
 41
0.0
 42
0.0
 43
0.0
 44
0.0
 45
0.0
 46
0.0
 47
0.0
 48
0.0
 49
0.0
140
0.0
141
0.0
142
1.0
143
1.0
 70
688
 72
0
 73
0
 74
5
  7

 75
16
147
1.0
148
0.0
149
0.0
100
AcDbLayout
  1
Layout2
 70
1
 71
2
 10
0.0
 20
0.0
 11
12.0
 21
9.0
 12
0.0
 22
0.0
 32
0.0
 14
0.0
 24
0.0
 34
0.0
 15
0.0
 25
0.0
 35
0.0
146
0.0
 13
0.0
 23
0.0
 33
0.0
 16
1.0
 26
0.0
 36
0.0
 17
0.0
 27
1.0
 37
0.0
 76
0
330
23
  0
DICTIONARY
  5
4B7
100
AcDbDictionary
281
1
  3
DIMASSOC
350
4B9
  3
HIDETEXT
350
4B8
  0
DICTIONARYVAR
  5
4B8
100
DictionaryVariables
280
0
  1
2
  0
DICTIONARYVAR
  5
4B9
100
DictionaryVariables
280
0
  1
1
  0
ENDSEC
  0
EOF
