  0
SECTION
  2
HEADER
  9
$ACADVER
  1
AC1015
  9
$ACADMAINTVER
 70
    13
  9
$DWGCODEPAGE
  3
ANSI_1252
  9
$INSBASE
 10
0.0
 20
0.0
 30
0.0
  9
$EXTMIN
 10
-340.1306285899627
 20
-26.06535555755044
 30
0.0
  9
$EXTMAX
 10
5205.119798176813
 20
6989.302902098208
 30
0.0
  9
$LIMMIN
 10
0.0
 20
0.0
  9
$LIMMAX
 10
420.0
 20
297.0
  9
$ORTHOMODE
 70
     1
  9
$REGENMODE
 70
     1
  9
$FILLMODE
 70
     1
  9
$QTEXTMODE
 70
     0
  9
$MIRRTEXT
 70
     1
  9
$LTSCALE
 40
1.0
  9
$ATTMODE
 70
     1
  9
$TEXTSIZE
 40
73.7487768496787
  9
$TRACEWID
 40
1.0
  9
$TEXTSTYLE
  7
Standard
  9
$CLAYER
  8
hilfslinie
  9
$CELTYPE
  6
ByLayer
  9
$CECOLOR
 62
   256
  9
$CELTSCALE
 40
1.0
  9
$DISPSILH
 70
     0
  9
$DIMSCALE
 40
1.0
  9
$DIMASZ
 40
2.5
  9
$DIMEXO
 40
0.625
  9
$DIMDLI
 40
3.75
  9
$DIMRND
 40
0.0
  9
$DIMDLE
 40
0.0
  9
$DIMEXE
 40
1.25
  9
$DIMTP
 40
0.0
  9
$DIMTM
 40
0.0
  9
$DIMTXT
 40
2.5
  9
$DIMCEN
 40
2.5
  9
$DIMTSZ
 40
0.0
  9
$DIMTOL
 70
     0
  9
$DIMLIM
 70
     0
  9
$DIMTIH
 70
     0
  9
$DIMTOH
 70
     0
  9
$DIMSE1
 70
     0
  9
$DIMSE2
 70
     0
  9
$DIMTAD
 70
     1
  9
$DIMZIN
 70
     8
  9
$DIMBLK
  1

  9
$DIMASO
 70
     1
  9
$DIMSHO
 70
     1
  9
$DIMPOST
  1

  9
$DIMAPOST
  1

  9
$DIMALT
 70
     0
  9
$DIMALTD
 70
     3
  9
$DIMALTF
 40
0.03937007874016
  9
$DIMLFAC
 40
1.0
  9
$DIMTOFL
 70
     1
  9
$DIMTVP
 40
0.0
  9
$DIMTIX
 70
     0
  9
$DIMSOXD
 70
     0
  9
$DIMSAH
 70
     0
  9
$DIMBLK1
  1

  9
$DIMBLK2
  1

  9
$DIMSTYLE
  2
ISO-25
  9
$DIMCLRD
 70
     0
  9
$DIMCLRE
 70
     0
  9
$DIMCLRT
 70
     0
  9
$DIMTFAC
 40
1.0
  9
$DIMGAP
 40
0.625
  9
$DIMJUST
 70
     0
  9
$DIMSD1
 70
     0
  9
$DIMSD2
 70
     0
  9
$DIMTOLJ
 70
     0
  9
$DIMTZIN
 70
     8
  9
$DIMALTZ
 70
     0
  9
$DIMALTTZ
 70
     0
  9
$DIMUPT
 70
     0
  9
$DIMDEC
 70
     2
  9
$DIMTDEC
 70
     2
  9
$DIMALTU
 70
     2
  9
$DIMALTTD
 70
     3
  9
$DIMTXSTY
  7
Standard
  9
$DIMAUNIT
 70
     0
  9
$DIMADEC
 70
     0
  9
$DIMALTRND
 40
0.0
  9
$DIMAZIN
 70
     0
  9
$DIMDSEP
 70
    44
  9
$DIMATFIT
 70
     3
  9
$DIMFRAC
 70
     0
  9
$DIMLDRBLK
  1

  9
$DIMLUNIT
 70
     2
  9
$DIMLWD
 70
    -2
  9
$DIMLWE
 70
    -2
  9
$DIMTMOVE
 70
     0
  9
$LUNITS
 70
     2
  9
$LUPREC
 70
     4
  9
$SKETCHINC
 40
1.0
  9
$FILLETRAD
 40
10.0
  9
$AUNITS
 70
     0
  9
$AUPREC
 70
     0
  9
$MENU
  1
.
  9
$ELEVATION
 40
0.0
  9
$PELEVATION
 40
0.0
  9
$THICKNESS
 40
0.0
  9
$LIMCHECK
 70
     0
  9
$CHAMFERA
 40
10.0
  9
$CHAMFERB
 40
10.0
  9
$CHAMFERC
 40
20.0
  9
$CHAMFERD
 40
0.0
  9
$SKPOLY
 70
     0
  9
$TDCREATE
 40
2454061.827442974
  9
$TDUCREATE
 40
2454061.785776307
  9
$TDUPDATE
 40
2454173.858736851
  9
$TDUUPDATE
 40
2454173.817070185
  9
$TDINDWG
 40
13.2098056134
  9
$TDUSRTIMER
 40
13.2098028935
  9
$USRTIMER
 70
     1
  9
$ANGBASE
 50
0.0
  9
$ANGDIR
 70
     0
  9
$PDMODE
 70
     0
  9
$PDSIZE
 40
0.0
  9
$PLINEWID
 40
0.0
  9
$SPLFRAME
 70
     0
  9
$SPLINETYPE
 70
     6
  9
$SPLINESEGS
 70
     8
  9
$HANDSEED
  5
211
  9
$SURFTAB1
 70
     6
  9
$SURFTAB2
 70
     6
  9
$SURFTYPE
 70
     6
  9
$SURFU
 70
     6
  9
$SURFV
 70
     6
  9
$UCSBASE
  2

  9
$UCSNAME
  2

  9
$UCSORG
 10
0.0
 20
0.0
 30
0.0
  9
$UCSXDIR
 10
1.0
 20
0.0
 30
0.0
  9
$UCSYDIR
 10
0.0
 20
1.0
 30
0.0
  9
$UCSORTHOREF
  2

  9
$UCSORTHOVIEW
 70
     0
  9
$UCSORGTOP
 10
0.0
 20
0.0
 30
0.0
  9
$UCSORGBOTTOM
 10
0.0
 20
0.0
 30
0.0
  9
$UCSORGLEFT
 10
0.0
 20
0.0
 30
0.0
  9
$UCSORGRIGHT
 10
0.0
 20
0.0
 30
0.0
  9
$UCSORGFRONT
 10
0.0
 20
0.0
 30
0.0
  9
$UCSORGBACK
 10
0.0
 20
0.0
 30
0.0
  9
$PUCSBASE
  2

  9
$PUCSNAME
  2

  9
$PUCSORG
 10
0.0
 20
0.0
 30
0.0
  9
$PUCSXDIR
 10
1.0
 20
0.0
 30
0.0
  9
$PUCSYDIR
 10
0.0
 20
1.0
 30
0.0
  9
$PUCSORTHOREF
  2

  9
$PUCSORTHOVIEW
 70
     0
  9
$PUCSORGTOP
 10
0.0
 20
0.0
 30
0.0
  9
$PUCSORGBOTTOM
 10
0.0
 20
0.0
 30
0.0
  9
$PUCSORGLEFT
 10
0.0
 20
0.0
 30
0.0
  9
$PUCSORGRIGHT
 10
0.0
 20
0.0
 30
0.0
  9
$PUCSORGFRONT
 10
0.0
 20
0.0
 30
0.0
  9
$PUCSORGBACK
 10
0.0
 20
0.0
 30
0.0
  9
$USERI1
 70
     0
  9
$USERI2
 70
     0
  9
$USERI3
 70
     0
  9
$USERI4
 70
     0
  9
$USERI5
 70
     0
  9
$USERR1
 40
0.0
  9
$USERR2
 40
0.0
  9
$USERR3
 40
0.0
  9
$USERR4
 40
0.0
  9
$USERR5
 40
0.0
  9
$WORLDVIEW
 70
     1
  9
$SHADEDGE
 70
     3
  9
$SHADEDIF
 70
    70
  9
$TILEMODE
 70
     1
  9
$MAXACTVP
 70
    64
  9
$PINSBASE
 10
0.0
 20
0.0
 30
0.0
  9
$PLIMCHECK
 70
     0
  9
$PEXTMIN
 10
1.000000000000000E+20
 20
1.000000000000000E+20
 30
1.000000000000000E+20
  9
$PEXTMAX
 10
-1.000000000000000E+20
 20
-1.000000000000000E+20
 30
-1.000000000000000E+20
  9
$PLIMMIN
 10
0.0
 20
0.0
  9
$PLIMMAX
 10
420.0
 20
297.0
  9
$UNITMODE
 70
     0
  9
$VISRETAIN
 70
     1
  9
$PLINEGEN
 70
     0
  9
$PSLTSCALE
 70
     1
  9
$TREEDEPTH
 70
  3020
  9
$CMLSTYLE
  2
Standard
  9
$CMLJUST
 70
     0
  9
$CMLSCALE
 40
20.0
  9
$PROXYGRAPHICS
 70
     1
  9
$MEASUREMENT
 70
     1
  9
$CELWEIGHT
370
    -1
  9
$ENDCAPS
280
     0
  9
$JOINSTYLE
280
     0
  9
$LWDISPLAY
290
     0
  9
$INSUNITS
 70
     4
  9
$HYPERLINKBASE
  1

  9
$STYLESHEET
  1
acad.ctb
  9
$XEDIT
290
     1
  9
$CEPSNTYPE
380
     0
  9
$PSTYLEMODE
290
     1
  9
$FINGERPRINTGUID
  2
{D1668B88-E142-4E7A-8147-435A3E8D445C}
  9
$VERSIONGUID
  2
{FC4E35C9-E68D-4919-8CD8-64CF3F18FCA8}
  9
$EXTNAMES
290
     1
  9
$PSVPSCALE
 40
0.0
  9
$OLESTARTUP
290
     0
  0
ENDSEC
  0
SECTION
  2
CLASSES
  0
CLASS
  1
ACDBDICTIONARYWDFLT
  2
AcDbDictionaryWithDefault
  3
AutoCAD 2000
 90
        0
280
     0
281
     0
  0
CLASS
  1
ACDBPLACEHOLDER
  2
AcDbPlaceHolder
  3
AutoCAD 2000
 90
        0
280
     0
281
     0
  0
CLASS
  1
LAYOUT
  2
AcDbLayout
  3
AutoCAD 2000
 90
        0
280
     0
281
     0
  0
CLASS
  1
DICTIONARYVAR
  2
AcDbDictionaryVar
  3
AutoCAD 2000
 90
        0
280
     0
281
     0
  0
CLASS
  1
DIMASSOC
  2
AcDbDimAssoc
  3
"AcDbDimAssoc|Product Desc:     AcDim ARX App For Dimension|Company:          Autodesk, Inc.|WEB Address:      www.autodesk.com"
 90
    32768
280
     0
281
     0
  0
ENDSEC
  0
SECTION
  2
TABLES
  0
TABLE
  2
VPORT
  5
8
330
0
100
AcDbSymbolTable
 70
     2
  0
VPORT
  5
210
330
8
100
AcDbSymbolTableRecord
100
AcDbViewportTableRecord
  2
*Active
 70
     0
 10
0.0
 20
0.0
 11
1.0
 21
1.0
 12
3787.860592945718
 22
3002.0269899995
 13
0.0
 23
0.0
 14
10.0
 24
10.0
 15
10.0
 25
10.0
 16
0.0
 26
0.0
 36
1.0
 17
0.0
 27
0.0
 37
0.0
 40
5522.3793770286
 41
1.498756218905472
 42
50.0
 43
0.0
 44
0.0
 50
0.0
 51
0.0
 71
     0
 72
   100
 73
     1
 74
     3
 75
     0
 76
     0
 77
     0
 78
     0
281
     0
 65
     1
110
0.0
120
0.0
130
0.0
111
1.0
121
0.0
131
0.0
112
0.0
122
1.0
132
0.0
 79
     0
146
0.0
  0
ENDTAB
  0
TABLE
  2
LTYPE
  5
5
330
0
100
AcDbSymbolTable
 70
     1
  0
LTYPE
  5
14
330
5
100
AcDbSymbolTableRecord
100
AcDbLinetypeTableRecord
  2
ByBlock
 70
     0
  3

 72
    65
 73
     0
 40
0.0
  0
LTYPE
  5
15
330
5
100
AcDbSymbolTableRecord
100
AcDbLinetypeTableRecord
  2
ByLayer
 70
     0
  3

 72
    65
 73
     0
 40
0.0
  0
LTYPE
  5
16
330
5
100
AcDbSymbolTableRecord
100
AcDbLinetypeTableRecord
  2
Continuous
 70
     0
  3
Solid line
 72
    65
 73
     0
 40
0.0
  0
ENDTAB
  0
TABLE
  2
LAYER
  5
2
330
0
100
AcDbSymbolTable
 70
     8
  0
LAYER
  5
10
330
2
100
AcDbSymbolTableRecord
100
AcDbLayerTableRecord
  2
0
 70
     0
 62
     7
  6
Continuous
370
    -3
390
F
  0
LAYER
  5
2B
330
2
100
AcDbSymbolTableRecord
100
AcDbLayerTableRecord
  2
mauer
 70
     0
 62
     7
  6
Continuous
370
    -3
390
F
  0
LAYER
  5
2C
330
2
100
AcDbSymbolTableRecord
100
AcDbLayerTableRecord
  2
stahl
 70
     0
 62
     2
  6
Continuous
370
    -3
390
F
  0
LAYER
  5
2D
330
2
100
AcDbSymbolTableRecord
100
AcDbLayerTableRecord
  2
hilfslinie
 70
     0
 62
    -4
  6
Continuous
370
    -3
390
F
  0
LAYER
  5
43
330
2
100
AcDbSymbolTableRecord
100
AcDbLayerTableRecord
  2
text
 70
     0
 62
     5
  6
Continuous
370
    -3
390
F
  0
LAYER
  5
4D
330
2
100
AcDbSymbolTableRecord
100
AcDbLayerTableRecord
  2
boden
 70
     0
 62
     1
  6
Continuous
370
    -3
390
F
  0
LAYER
  5
80
330
2
100
AcDbSymbolTableRecord
100
AcDbLayerTableRecord
  2
holz
 70
     0
 62
    17
  6
Continuous
370
    -3
390
F
  0
LAYER
  5
12E
330
2
100
AcDbSymbolTableRecord
100
AcDbLayerTableRecord
  2
Defpoints
 70
     0
 62
     7
  6
Continuous
290
     0
370
    -3
390
F
  0
ENDTAB
  0
TABLE
  2
STYLE
  5
3
330
0
100
AcDbSymbolTable
 70
     1
  0
STYLE
  5
11
330
3
100
AcDbSymbolTableRecord
100
AcDbTextStyleTableRecord
  2
Standard
 70
     0
 40
0.0
 41
1.0
 50
0.0
 71
     0
 42
73.7487768496787
  3
txt
  4

  0
ENDTAB
  0
TABLE
  2
VIEW
  5
6
330
0
100
AcDbSymbolTable
 70
     0
  0
ENDTAB
  0
TABLE
  2
UCS
  5
7
330
0
100
AcDbSymbolTable
 70
     0
  0
ENDTAB
  0
TABLE
  2
APPID
  5
9
330
0
100
AcDbSymbolTable
 70
     1
  0
APPID
  5
12
330
9
100
AcDbSymbolTableRecord
100
AcDbRegAppTableRecord
  2
ACAD
 70
     0
  0
ENDTAB
  0
TABLE
  2
DIMSTYLE
  5
A
330
0
100
AcDbSymbolTable
 70
     1
100
AcDbDimStyleTable
 71
     1
340
27
  0
DIMSTYLE
105
27
330
A
100
AcDbSymbolTableRecord
100
AcDbDimStyleTableRecord
  2
ISO-25
 70
     0
 41
2.5
 42
0.625
 43
3.75
 44
1.25
 73
     0
 74
     0
 77
     1
 78
     8
140
2.5
141
2.5
143
0.03937007874016
147
0.625
171
     3
172
     1
271
     2
272
     2
274
     3
278
    44
283
     0
284
     8
340
11
  0
ENDTAB
  0
TABLE
  2
BLOCK_RECORD
  5
1
330
0
100
AcDbSymbolTable
 70
     1
  0
BLOCK_RECORD
  5
1F
330
1
100
AcDbSymbolTableRecord
100
AcDbBlockTableRecord
  2
*Model_Space
340
22
  0
BLOCK_RECORD
  5
1B
330
1
100
AcDbSymbolTableRecord
100
AcDbBlockTableRecord
  2
*Paper_Space
340
1E
  0
BLOCK_RECORD
  5
23
330
1
100
AcDbSymbolTableRecord
100
AcDbBlockTableRecord
  2
*Paper_Space0
340
26
  0
ENDTAB
  0
ENDSEC
  0
SECTION
  2
BLOCKS
  0
BLOCK
  5
20
330
1F
100
AcDbEntity
  8
0
100
AcDbBlockBegin
  2
*Model_Space
 70
     0
 10
0.0
 20
0.0
 30
0.0
  3
*Model_Space
  1

  0
ENDBLK
  5
21
330
1F
100
AcDbEntity
  8
0
100
AcDbBlockEnd
  0
BLOCK
  5
1C
330
1B
100
AcDbEntity
 67
     1
  8
0
100
AcDbBlockBegin
  2
*Paper_Space
 70
     0
 10
0.0
 20
0.0
 30
0.0
  3
*Paper_Space
  1

  0
ENDBLK
  5
1D
330
1B
100
AcDbEntity
 67
     1
  8
0
100
AcDbBlockEnd
  0
BLOCK
  5
24
330
23
100
AcDbEntity
  8
0
100
AcDbBlockBegin
  2
*Paper_Space0
 70
     0
 10
0.0
 20
0.0
 30
0.0
  3
*Paper_Space0
  1

  0
ENDBLK
  5
25
330
23
100
AcDbEntity
  8
0
100
AcDbBlockEnd
  0
ENDSEC
  0
SECTION
  2
ENTITIES
  0
LINE
  5
121
330
1F
100
AcDbEntity
  8
stahl
100
AcDbLine
 10
2829.029402287311
 20
2402.466008973258
 30
0.0
 11
2829.029402287309
 21
4202.466008973257
 31
0.0
  0
LINE
  5
122
330
1F
100
AcDbEntity
  8
stahl
100
AcDbLine
 10
2869.029402287311
 20
2402.466008973258
 30
0.0
 11
2869.02940228731
 21
4202.466008973257
 31
0.0
  0
LINE
  5
125
330
1F
100
AcDbEntity
  8
stahl
100
AcDbLine
 10
2829.029402287311
 20
2402.466008973258
 30
0.0
 11
2869.029402287311
 21
2402.466008973258
 31
0.0
  0
LINE
  5
12B
330
1F
100
AcDbEntity
  8
stahl
100
AcDbLine
 10
2829.029402287311
 20
2452.466008973257
 30
0.0
 11
2430.657716546469
 21
2682.466008973257
 31
0.0
  0
LINE
  5
14A
330
1F
100
AcDbEntity
  8
stahl
100
AcDbLine
 10
2829.029402287311
 20
2487.107025124636
 30
0.0
 11
2445.657716546469
 21
2708.446771086791
 31
0.0
  0
LINE
  5
15C
330
1F
100
AcDbEntity
  8
stahl
100
AcDbLine
 10
2829.029402287311
 20
2856.611197405995
 30
0.0
 11
2430.657716546468
 21
3086.611197405995
 31
0.0
  0
LINE
  5
160
330
1F
100
AcDbEntity
  8
stahl
100
AcDbLine
 10
2829.029402287311
 20
3260.756385838735
 30
0.0
 11
2430.657716546468
 21
3490.756385838735
 31
0.0
  0
LINE
  5
161
330
1F
100
AcDbEntity
  8
stahl
100
AcDbLine
 10
2829.029402287311
 20
3664.901574271472
 30
0.0
 11
2430.657716546468
 21
3894.901574271473
 31
0.0
  0
LINE
  5
16C
330
1F
100
AcDbEntity
  8
stahl
100
AcDbLine
 10
2829.029402287311
 20
2856.611197405996
 30
0.0
 11
2669.02940228731
 21
2579.483068194976
 31
0.0
  0
LINE
  5
16F
330
1F
100
AcDbEntity
  8
stahl
100
AcDbLine
 10
2430.657716546469
 20
2682.466008973258
 30
0.0
 11
2445.657716546469
 21
2708.446771086791
 31
0.0
  0
LINE
  5
171
330
1F
100
AcDbEntity
  8
stahl
100
AcDbLine
 10
2829.02940228731
 20
2891.252213557374
 30
0.0
 11
2445.657716546469
 21
3112.591959519528
 31
0.0
  0
LINE
  5
172
330
1F
100
AcDbEntity
  8
stahl
100
AcDbLine
 10
2430.657716546468
 20
3086.611197405995
 30
0.0
 11
2445.657716546469
 21
3112.591959519528
 31
0.0
  0
LINE
  5
173
330
1F
100
AcDbEntity
  8
stahl
100
AcDbLine
 10
2829.02940228731
 20
3260.756385838734
 30
0.0
 11
2669.02940228731
 21
2983.628256627713
 31
0.0
  0
LINE
  5
174
330
1F
100
AcDbEntity
  8
stahl
100
AcDbLine
 10
2829.029402287311
 20
3295.397401990113
 30
0.0
 11
2445.657716546469
 21
3516.737147952268
 31
0.0
  0
LINE
  5
175
330
1F
100
AcDbEntity
  8
stahl
100
AcDbLine
 10
2430.657716546469
 20
3490.756385838735
 30
0.0
 11
2445.657716546469
 21
3516.737147952268
 31
0.0
  0
LINE
  5
176
330
1F
100
AcDbEntity
  8
stahl
100
AcDbLine
 10
2829.029402287311
 20
3664.901574271473
 30
0.0
 11
2669.02940228731
 21
3387.773445060453
 31
0.0
  0
LINE
  5
177
330
1F
100
AcDbEntity
  8
stahl
100
AcDbLine
 10
2829.029402287311
 20
3699.542590422851
 30
0.0
 11
2445.657716546469
 21
3920.882336385006
 31
0.0
  0
LINE
  5
178
330
1F
100
AcDbEntity
  8
stahl
100
AcDbLine
 10
2430.657716546469
 20
3894.901574271473
 30
0.0
 11
2445.657716546469
 21
3920.882336385005
 31
0.0
  0
LINE
  5
179
330
1F
100
AcDbEntity
  8
stahl
100
AcDbLine
 10
2829.029402287311
 20
4069.046762704211
 30
0.0
 11
2669.02940228731
 21
3791.918633493191
 31
0.0
  0
LINE
  5
17D
330
1F
100
AcDbEntity
  8
stahl
100
AcDbLine
 10
2811.708894211622
 20
2866.611197405996
 30
0.0
 11
2651.708894211621
 21
2589.483068194975
 31
0.0
  0
LINE
  5
17E
330
1F
100
AcDbEntity
  8
stahl
100
AcDbLine
 10
2811.708894211621
 20
3270.756385838733
 30
0.0
 11
2651.708894211621
 21
2993.628256627713
 31
0.0
  0
LINE
  5
17F
330
1F
100
AcDbEntity
  8
stahl
100
AcDbLine
 10
2811.708894211622
 20
3674.901574271473
 30
0.0
 11
2651.708894211621
 21
3397.773445060453
 31
0.0
  0
LINE
  5
180
330
1F
100
AcDbEntity
  8
stahl
100
AcDbLine
 10
2829.029402287311
 20
4109.046762704211
 30
0.0
 11
2651.708894211621
 21
3801.91863349319
 31
0.0
  0
XLINE
  5
189
330
1F
100
AcDbEntity
  8
hilfslinie
100
AcDbXline
 10
2829.029402287311
 20
4202.466008973257
 30
0.0
 11
1.0
 21
0.0
 31
0.0
  0
XLINE
  5
18F
330
1F
100
AcDbEntity
  8
hilfslinie
100
AcDbXline
 10
2829.029402287311
 20
2452.466008973257
 30
0.0
 11
1.0
 21
0.0
 31
0.0
  0
XLINE
  5
190
330
1F
100
AcDbEntity
  8
hilfslinie
100
AcDbXline
 10
2445.657716546469
 20
2708.446771086791
 30
0.0
 11
-1.0
 21
0.0
 31
0.0
  0
XLINE
  5
191
330
1F
100
AcDbEntity
  8
hilfslinie
100
AcDbXline
 10
2430.657716546468
 20
2682.466008973257
 30
0.0
 11
-1.0
 21
0.0
 31
0.0
  0
XLINE
  5
192
330
1F
100
AcDbEntity
  8
hilfslinie
100
AcDbXline
 10
2829.029402287311
 20
2487.107025124636
 30
0.0
 11
1.0
 21
0.0
 31
0.0
  0
LINE
  5
194
330
1F
100
AcDbEntity
  8
stahl
100
AcDbLine
 10
3284.45849128837
 20
2402.466008973258
 30
0.0
 11
3284.45849128837
 21
4202.466008973257
 31
0.0
  0
LINE
  5
195
330
1F
100
AcDbEntity
  8
stahl
100
AcDbLine
 10
3284.45849128837
 20
4202.466008973257
 30
0.0
 11
3314.45849128837
 21
4202.466008973257
 31
0.0
  0
LINE
  5
196
330
1F
100
AcDbEntity
  8
stahl
100
AcDbLine
 10
3284.458491288371
 20
2402.466008973258
 30
0.0
 11
3314.458491288371
 21
2402.466008973258
 31
0.0
  0
LINE
  5
19F
330
1F
100
AcDbEntity
  8
hilfslinie
100
AcDbLine
 10
3324.458491288371
 20
2452.466008973257
 30
0.0
 11
3734.45849128837
 21
2452.466008973257
 31
0.0
  0
LINE
  5
1A0
330
1F
100
AcDbEntity
  8
stahl
100
AcDbLine
 10
3314.458491288371
 20
2452.466008973257
 30
0.0
 11
3704.45849128837
 21
2452.466008973257
 31
0.0
  0
LINE
  5
1A2
330
1F
100
AcDbEntity
  8
stahl
100
AcDbLine
 10
3704.45849128837
 20
2487.107025124636
 30
0.0
 11
3314.458491288371
 21
2487.107025124635
 31
0.0
  0
LINE
  5
1A5
330
1F
100
AcDbEntity
  8
stahl
100
AcDbLine
 10
3314.458491288371
 20
2708.44677108679
 30
0.0
 11
3704.45849128837
 21
2708.446771086791
 31
0.0
  0
LINE
  5
1A7
330
1F
100
AcDbEntity
  8
stahl
100
AcDbLine
 10
3704.45849128837
 20
2682.466008973258
 30
0.0
 11
3314.458491288371
 21
2682.466008973257
 31
0.0
  0
XLINE
  5
1A8
330
1F
100
AcDbEntity
  8
hilfslinie
100
AcDbXline
 10
2669.029402287311
 20
2579.483068194976
 30
0.0
 11
1.0
 21
0.0
 31
0.0
  0
LINE
  5
1AC
330
1F
100
AcDbEntity
  8
stahl
100
AcDbLine
 10
2669.029402287311
 20
2579.483068194976
 30
0.0
 11
2654.02940228731
 21
2553.502306081442
 31
0.0
  0
XLINE
  5
1AD
330
1F
100
AcDbEntity
  8
hilfslinie
100
AcDbXline
 10
2654.02940228731
 20
2553.502306081442
 30
0.0
 11
-1.0
 21
0.0
 31
0.0
  0
LINE
  5
1AE
330
1F
100
AcDbEntity
  8
stahl
100
AcDbLine
 10
3314.458491288371
 20
2579.483068194976
 30
0.0
 11
3704.45849128837
 21
2579.483068194976
 31
0.0
  0
LINE
  5
1B0
330
1F
100
AcDbEntity
  8
stahl
100
AcDbLine
 10
3704.45849128837
 20
2553.502306081442
 30
0.0
 11
3314.458491288371
 21
2553.502306081442
 31
0.0
  0
LINE
  5
1B6
330
1F
100
AcDbEntity
  8
stahl
100
AcDbLine
 10
2829.029402287311
 20
4202.466008973257
 30
0.0
 11
2869.029402287311
 21
4202.466008973257
 31
0.0
  0
LINE
  5
1B7
330
1F
100
AcDbEntity
  8
stahl
100
AcDbLine
 10
4200.984834269113
 20
3690.301170819891
 30
0.0
 11
4200.984834269113
 21
3230.30117081989
 31
0.0
  0
LINE
  5
1B8
330
1F
100
AcDbEntity
  8
stahl
100
AcDbLine
 10
4230.984834269113
 20
3690.301170819891
 30
0.0
 11
4230.984834269113
 21
3230.30117081989
 31
0.0
  0
LINE
  5
1B9
330
1F
100
AcDbEntity
  8
stahl
100
AcDbLine
 10
4200.984834269113
 20
3690.301170819891
 30
0.0
 11
4230.984834269113
 21
3690.301170819891
 31
0.0
  0
LINE
  5
1BA
330
1F
100
AcDbEntity
  8
stahl
100
AcDbLine
 10
4200.984834269113
 20
3230.30117081989
 30
0.0
 11
4230.984834269113
 21
3230.30117081989
 31
0.0
  0
LINE
  5
1BB
330
1F
100
AcDbEntity
  8
stahl
100
AcDbLine
 10
4650.984834269112
 20
3690.301170819891
 30
0.0
 11
4650.984834269112
 21
3230.30117081989
 31
0.0
  0
LINE
  5
1BC
330
1F
100
AcDbEntity
  8
stahl
100
AcDbLine
 10
4620.984834269113
 20
3690.301170819891
 30
0.0
 11
4620.984834269113
 21
3230.30117081989
 31
0.0
  0
LINE
  5
1BD
330
1F
100
AcDbEntity
  8
stahl
100
AcDbLine
 10
4620.984834269113
 20
3690.301170819891
 30
0.0
 11
4650.984834269112
 21
3690.301170819891
 31
0.0
  0
LINE
  5
1BE
330
1F
100
AcDbEntity
  8
stahl
100
AcDbLine
 10
4620.984834269113
 20
3230.30117081989
 30
0.0
 11
4650.984834269112
 21
3230.30117081989
 31
0.0
  0
LINE
  5
1D7
330
1F
100
AcDbEntity
  8
stahl
100
AcDbLine
 10
4885.119798176813
 20
3247.621678895579
 30
0.0
 11
4885.119798176813
 21
3690.301170819891
 31
0.0
  0
LINE
  5
1D8
330
1F
100
AcDbEntity
  8
stahl
100
AcDbLine
 10
4855.119798176812
 20
3230.30117081989
 30
0.0
 11
4855.119798176812
 21
3690.301170819891
 31
0.0
  0
LINE
  5
1D9
330
1F
100
AcDbEntity
  8
stahl
100
AcDbLine
 10
4855.119798176812
 20
3690.301170819891
 30
0.0
 11
4885.119798176813
 21
3690.301170819891
 31
0.0
  0
LINE
  5
1DA
330
1F
100
AcDbEntity
  8
stahl
100
AcDbLine
 10
5205.119798176813
 20
3452.373765036259
 30
0.0
 11
4885.119798176813
 21
3452.373765036259
 31
0.0
  0
LINE
  5
1DB
330
1F
100
AcDbEntity
  8
stahl
100
AcDbLine
 10
5205.119798176813
 20
3432.37376503626
 30
0.0
 11
4885.119798176813
 21
3432.37376503626
 31
0.0
  0
LINE
  5
1DC
330
1F
100
AcDbEntity
  8
stahl
100
AcDbLine
 10
4885.119798176813
 20
3432.37376503626
 30
0.0
 11
4855.119798176812
 21
3432.37376503626
 31
0.0
  0
LINE
  5
1E1
330
1F
100
AcDbEntity
  8
stahl
100
AcDbLine
 10
4230.984834269113
 20
3452.373765036259
 30
0.0
 11
4620.984834269113
 21
3452.373765036259
 31
0.0
  0
LINE
  5
1E4
330
1F
100
AcDbEntity
  8
stahl
100
AcDbLine
 10
4230.984834269113
 20
3472.37376503626
 30
0.0
 11
4620.984834269113
 21
3472.37376503626
 31
0.0
  0
LINE
  5
1E5
330
1F
100
AcDbEntity
  8
stahl
100
AcDbLine
 10
4200.984834269113
 20
3432.37376503626
 30
0.0
 11
4650.984834269112
 21
3432.373765036259
 31
0.0
  0
LINE
  5
1E6
330
1F
100
AcDbEntity
  8
stahl
100
AcDbLine
 10
4200.984834269113
 20
3435.37376503626
 30
0.0
 11
4650.984834269112
 21
3435.373765036259
 31
0.0
  0
LINE
  5
1E7
330
1F
100
AcDbEntity
  8
stahl
100
AcDbLine
 10
4885.119798176813
 20
3435.37376503626
 30
0.0
 11
4855.119798176812
 21
3435.37376503626
 31
0.0
  0
LINE
  5
1E8
330
1F
100
AcDbEntity
  8
stahl
100
AcDbLine
 10
4230.984834269113
 20
3690.301170819891
 30
0.0
 11
4620.984834269113
 21
3690.301170819891
 31
0.0
  0
LINE
  5
1E9
330
1F
100
AcDbEntity
  8
stahl
100
AcDbLine
 10
4230.984834269113
 20
3670.30117081989
 30
0.0
 11
4620.984834269113
 21
3670.30117081989
 31
0.0
  0
LINE
  5
1EB
330
1F
100
AcDbEntity
  8
stahl
100
AcDbLine
 10
3734.45849128837
 20
2402.466008973258
 30
0.0
 11
3734.45849128837
 21
4202.466008973257
 31
0.0
  0
LINE
  5
1EC
330
1F
100
AcDbEntity
  8
stahl
100
AcDbLine
 10
3704.45849128837
 20
2402.466008973258
 30
0.0
 11
3704.45849128837
 21
4202.466008973257
 31
0.0
  0
LINE
  5
1EF
330
1F
100
AcDbEntity
  8
stahl
100
AcDbLine
 10
3704.45849128837
 20
2402.466008973258
 30
0.0
 11
3734.45849128837
 21
2402.466008973258
 31
0.0
  0
LINE
  5
1F0
330
1F
100
AcDbEntity
  8
stahl
100
AcDbLine
 10
3704.45849128837
 20
4202.466008973257
 30
0.0
 11
3734.45849128837
 21
4202.466008973257
 31
0.0
  0
LINE
  5
1F1
330
1F
100
AcDbEntity
  8
stahl
100
AcDbLine
 10
3314.458491288371
 20
2402.466008973258
 30
0.0
 11
3314.45849128837
 21
4202.466008973257
 31
0.0
  0
LINE
  5
1F2
330
1F
100
AcDbEntity
  8
stahl
100
AcDbLine
 10
4270.984834269113
 20
3670.30117081989
 30
0.0
 11
4270.984834269113
 21
3472.37376503626
 31
0.0
  0
LINE
  5
1F3
330
1F
100
AcDbEntity
  8
stahl
100
AcDbLine
 10
4580.984834269113
 20
3670.30117081989
 30
0.0
 11
4580.984834269113
 21
3472.373765036261
 31
0.0
  0
LINE
  5
1F4
330
1F
100
AcDbEntity
  8
stahl
100
AcDbLine
 10
4290.984834269113
 20
3670.30117081989
 30
0.0
 11
4290.984834269113
 21
3472.373765036261
 31
0.0
  0
LINE
  5
1F5
330
1F
100
AcDbEntity
  8
stahl
100
AcDbLine
 10
4560.984834269112
 20
3670.30117081989
 30
0.0
 11
4560.984834269112
 21
3472.373765036261
 31
0.0
  0
ENDSEC
  0
SECTION
  2
OBJECTS
  0
DICTIONARY
  5
C
330
0
100
AcDbDictionary
281
     1
  3
ACAD_GROUP
350
D
  3
ACAD_LAYOUT
350
1A
  3
ACAD_MLINESTYLE
350
17
  3
ACAD_PLOTSETTINGS
350
19
  3
ACAD_PLOTSTYLENAME
350
E
  3
AcDbVariableDictionary
350
114
  0
DICTIONARY
  5
D
102
{ACAD_REACTORS
330
C
102
}
330
C
100
AcDbDictionary
281
     1
  0
DICTIONARY
  5
1A
102
{ACAD_REACTORS
330
C
102
}
330
C
100
AcDbDictionary
281
     1
  3
Layout1
350
1E
  3
Layout2
350
26
  3
Model
350
22
  0
DICTIONARY
  5
17
102
{ACAD_REACTORS
330
C
102
}
330
C
100
AcDbDictionary
281
     1
  3
Standard
350
18
  0
DICTIONARY
  5
19
102
{ACAD_REACTORS
330
C
102
}
330
C
100
AcDbDictionary
281
     1
  0
ACDBDICTIONARYWDFLT
  5
E
102
{ACAD_REACTORS
330
C
102
}
330
C
100
AcDbDictionary
281
     1
  3
Normal
350
F
100
AcDbDictionaryWithDefault
340
F
  0
DICTIONARY
  5
114
102
{ACAD_REACTORS
330
C
102
}
330
C
100
AcDbDictionary
281
     1
  3
DIMASSOC
350
116
  3
HIDETEXT
350
115
  0
LAYOUT
  5
1E
102
{ACAD_REACTORS
330
1A
102
}
330
1A
100
AcDbPlotSettings
  1

  2
HP LaserJet 4000 Series PS
  4

  6

 40
0.0
 41
0.0
 42
0.0
 43
0.0
 44
0.0
 45
0.0
 46
0.0
 47
0.0
 48
0.0
 49
0.0
140
0.0
141
0.0
142
1.0
143
1.0
 70
   688
 72
     0
 73
     0
 74
     5
  7
acad.ctb
 75
    16
147
1.0
148
0.0
149
0.0
100
AcDbLayout
  1
Layout1
 70
     1
 71
     1
 10
0.0
 20
0.0
 11
420.0
 21
297.0
 12
0.0
 22
0.0
 32
0.0
 14
1.000000000000000E+20
 24
1.000000000000000E+20
 34
1.000000000000000E+20
 15
-1.000000000000000E+20
 25
-1.000000000000000E+20
 35
-1.000000000000000E+20
146
0.0
 13
0.0
 23
0.0
 33
0.0
 16
1.0
 26
0.0
 36
0.0
 17
0.0
 27
1.0
 37
0.0
 76
     0
330
1B
  0
LAYOUT
  5
26
102
{ACAD_REACTORS
330
1A
102
}
330
1A
100
AcDbPlotSettings
  1

  2
HP LaserJet 4000 Series PS
  4

  6

 40
0.0
 41
0.0
 42
0.0
 43
0.0
 44
0.0
 45
0.0
 46
0.0
 47
0.0
 48
0.0
 49
0.0
140
0.0
141
0.0
142
1.0
143
1.0
 70
   688
 72
     0
 73
     0
 74
     5
  7
acad.ctb
 75
    16
147
1.0
148
0.0
149
0.0
100
AcDbLayout
  1
Layout2
 70
     1
 71
     2
 10
0.0
 20
0.0
 11
12.0
 21
9.0
 12
0.0
 22
0.0
 32
0.0
 14
0.0
 24
0.0
 34
0.0
 15
0.0
 25
0.0
 35
0.0
146
0.0
 13
0.0
 23
0.0
 33
0.0
 16
1.0
 26
0.0
 36
0.0
 17
0.0
 27
1.0
 37
0.0
 76
     0
330
23
  0
LAYOUT
  5
22
102
{ACAD_REACTORS
330
1A
102
}
330
1A
100
AcDbPlotSettings
  1

  2
HP LaserJet 4000 Series PS
  4
A4
  6

 40
5.746749877929687
 41
5.365768432617187
 42
5.70440673828125
 43
5.746734619140625
 44
209.8886566162109
 45
297.0530090332031
 46
0.0
 47
0.0
 48
4012.432066868012
 49
3042.663181359337
140
5371.72809465618
141
3886.245336273794
142
1.0
143
4.753772198599848
 70
 11952
 72
     1
 73
     1
 74
     4
  7
acad.ctb
 75
     0
147
0.2103592595990475
148
-4012.432066868012
149
-3042.663181359337
100
AcDbLayout
  1
Model
 70
     1
 71
     0
 10
0.0
 20
0.0
 11
12.0
 21
9.0
 12
0.0
 22
0.0
 32
0.0
 14
0.0
 24
0.0
 34
0.0
 15
0.0
 25
0.0
 35
0.0
146
0.0
 13
0.0
 23
0.0
 33
0.0
 16
1.0
 26
0.0
 36
0.0
 17
0.0
 27
1.0
 37
0.0
 76
     0
330
1F
  0
MLINESTYLE
  5
18
102
{ACAD_REACTORS
330
17
102
}
330
17
100
AcDbMlineStyle
  2
STANDARD
 70
     0
  3

 62
   256
 51
90.0
 52
90.0
 71
     2
 49
0.5
 62
   256
  6
BYLAYER
 49
-0.5
 62
   256
  6
BYLAYER
  0
ACDBPLACEHOLDER
  5
F
102
{ACAD_REACTORS
330
E
102
}
330
E
  0
DICTIONARYVAR
  5
116
102
{ACAD_REACTORS
330
114
102
}
330
114
100
DictionaryVariables
280
     0
  1
2
  0
DICTIONARYVAR
  5
115
102
{ACAD_REACTORS
330
114
102
}
330
114
100
DictionaryVariables
280
     0
  1
1
  0
ENDSEC
  0
EOF
